Oops, an error
Loading. Please wait.

Doña Carmen tab

155 views 1 this week
no commentswrite comment
1 2 3 4 5
3 more votes to show rating
add to favorites
×
Save as Personal and add changes to this tab that will be seen only by you. Learn more ›
×
You can save this tab as Personal to edit and correct it or add notes. All changes will be seen only by you. Learn more »
launch autoscroll
font size
0
reset
how to read this tab
guitar tuner
edit
Autoscroll
slow
fast
+/-
esc
set tempo
stop
e|----------|-------7-|-------5-|--------|-2-h3-2-3/|-5--------10-|----
B|-7-h8-7-6-|-7-------|-6-------|-5---2--|----------|--------7----|-9--
G|----------|----6----|----6----|-----4--|----------|-------6-----|----
D|----------|----7----|----5----|-----4--|----------|----7--------|----
A|----------|----5----|---------|-----5--|----------|---5---------|----
E|----------|---------|----5----|--------|----------|-------------|----

e|----10-|-------7----|-----7-h10-9-7-|-10-----7-5-|-4-----7-12-|-9------|
B|-------|-8------8---|-5h7-----------|-----8------|----3-------|---10---|
G|-------|----------7-|-6-------------|-----7------|----4-------|---9----|
D|--9----|----9-------|-5-------------|-----9------|----3-------|---11---|
A|-8-----|---7--------|---------------|-----7------|------------|---9----|
E|-------|------------|-5-------------|------------|------------|------9h|

e|-------|7-----|-------|5----|7-h10-9-7-|-10-----7-5-|-4-----7-12-|
B|----8-7|--8---|---7-5h|7----|----------|-----8------|----3-------|
G|----8--|--7---|---6---|4----|----------|-----7------|----4-------|
D|----7--|--9---|---5---|0----|----------|-----9------|----3-------|
A|-------|--7---|-------|-----|----------|-----7------|------------|
E|-7-----|----7h|5------|-----|----------|------------|------------|

e|-9------|-------|7-------7---|-9-------9---|-10------10------|
B|---10---|----8-7|------7---7-|-------7---7-|------10----10---|
G|---9----|----8--|----7-------|-----6-------|----9----------9-|
D|---11---|----7--|--6---------|---5---------|-0---------------|
A|---9----|-------|------------|-0-----------|-----------------|
E|------9h|-7-----|0-----------|-------------|-----------------|

e|---------------|-------7-|-------5-|--------|-2-h3-2-3/|-5--------10-|
B|------7-h8-7-6-|-7-------|-6-------|-5---2--|----------|--------7----|
G|---------------|----6----|----6----|-----4--|----------|-------6-----|
D|-(12)----------|----7----|----5----|-----4--|----------|----7--------|
A|---------------|----5----|---------|-----5--|----------|---5---------|
E|---------------|---------|----5----|--------|----------|-------------|

e|--------10-|-------7----|-----7-h10-9-7-|-10-----7-5-|-4-----7-12-|
B|-9---------|-8------8---|-5h7-----------|-----8------|----3-------|
G|-----------|----------7-|-6-------------|-----7------|----4-------|
D|------9----|----9-------|-5-------------|-----9------|----3-------|
A|-----8-----|---7--------|---------------|-----7------|------------|
E|-----------|------------|-5-------------|------------|------------|

e|-9------|-------|7-----|-------|5----|7-h10-9-7-|-10-----7-5-|
B|---10---|----8-7|--8---|---7-5h|7----|----------|-----8------|
G|---9----|----8--|--7---|---6---|4----|----------|-----7------|
D|---11---|----7--|--9---|---5---|0----|----------|-----9------|
A|---9----|-------|--7---|-------|-----|----------|-----7------|
E|------9h|-7-----|----7h|5------|-----|----------|------------|

e|-4-----7-12-|-9------|-------|7-------7---|-9-------9---|
B|----3-------|---10---|----8-7|------7---7-|-------7---7-|
G|----4-------|---9----|----8--|----7-------|-----6-------|
D|----3-------|---11---|----7--|--6---------|---5---------|
A|------------|---9----|-------|------------|-0-----------|
E|------------|------9h|-7-----|0-----------|-------------|

e|-10------10------|---232h1-0-----|
B|------10----10---|-----------4-3-|
G|----9----------9-|-----2h1-0-----|
D|-0---------------|-0---------1-3-|
A|-----------------|---------------|
E|-----------------|---------------|

e|--------2-|-0------|--------|---------------|-7-----5-|-5-----2-|
B|-2--------|--------|-3------|---575-4-5-7-5-|----5----|----3----|
G|----2-----|----3---|----1---|-----6-4-6-7-6-|----5----|----4----|
D|----4-----|----5---|----3---|---------------|----6----|----3----|
A|----5-----|----4---|----2---|-0-------------|---------|-4-------|
E|------2---|------3-|------1-|-------0-------|-5-------|---------|

e|-4--2-----|----------|0----------|---3h3---5|----------|---------|
B|---2------|---5h5---7|-------3---|---3------|5/7-------|--8h8---7|
G|---2------|---6------|-----2---2-|---3------|------5--6|--8------|
D|-0--------|---5------|---4-------|---2---2--|--0-------|--7------|
A|----------|----------|--2--------|----------|----------|---------|
E|-------2-/|6------6--|-----------|-3--------|----5--6--|7-----7--|

e|7-----------|-----------|5-----------|---------|0-----------|----
B|--8---------|----7h7---5|--------5---|--5h5---7|--------3---|----
G|----7-------|----6------|------5-----|--5------|------4---4-|----
D|------9-----|----5------|----5-------|--4------|----4-------|----
A|--------7---|-----------|--7-------6h|5-5---5--|------------|-3--
E|----------7-|-6------6--|5-----------|---------|--3---------|----

e|-3h3---5|------------|-----------|--7--7-|---9--9---9-|-10------
B|-4------|--7-6-7-5-7-|----8h8---7|---8---|----7---7---|------10-
G|-3------|----4---3---|----8------|---7---|----6---6---|----9----
D|-5------|------------|----7------|---9---|----5---5---|-0-------
A|-----3--|5---4---3---|-----------|7------|-0----------|---------
E|--------|------------|-7------7--|-------|------------|---------

e|-10------|---232h1-0-----|
B|----10---|-----------4-3-|
G|-------9-|-----2h1-0-----|
D|---------|-0---------1-3-|
A|---------|---------------|
E|---------|---------------|

e|--------2-|-0------|--------|---------------|-7-----5-|-5-----2-|
B|-2--------|--------|-3------|---575-4-5-7-5-|----5----|----3----|
G|----2-----|----3---|----1---|-----6-4-6-7-6-|----5----|----4----|
D|----4-----|----5---|----3---|---------------|----6----|----3----|
A|----5-----|----4---|----2---|-0-------------|---------|-4-------|
E|------2---|------3-|------1-|-------0-------|-5-------|---------|

e|-4--2-----|----------|0----------|---3h3---5|----------|---------|
B|---2------|---5h5---7|-------3---|---3------|5/7-------|--8h8---7|
G|---2------|---6------|-----2---2-|---3------|------5--6|--8------|
D|-0--------|---5------|---4-------|---2---2--|--0-------|--7------|
A|----------|----------|--2--------|----------|----------|---------|
E|-------2-/|6------6--|-----------|-3--------|----5--6--|7-----7--|

e|7-----------|-----------|5-----------|---------|0-----------|----
B|--8---------|----7h7---5|--------5---|--5h5---7|--------3---|----
G|----7-------|----6------|------5-----|--5------|------4---4-|----
D|------9-----|----5------|----5-------|--4------|----4-------|----
A|--------7---|-----------|--7-------6h|5-5---5--|------------|-3--
E|----------7-|-6------6--|5-----------|---------|--3---------|----

e|-3h3---5|------------|-----------|--7--7-|---9--9---9-|-10------
B|-4------|--7-6-7-5-7-|----8h8---7|---8---|----7---7---|------10-
G|-3------|----4---3---|----8------|---7---|----6---6---|----9----
D|-5------|------------|----7------|---9---|----5---5---|-0-------
A|-----3--|5---4---3---|-----------|7------|-0----------|---------
E|--------|------------|-7------7--|-------|------------|---------

e|-10------|-------|
B|----10---|-------|
G|-------9-|-------|
D|---------|-(12)--|
A|---------|-------|
E|---------|-------|

e|----------|-------7-|-------5-|--------|-2-h3-2-3/|-5--------10-|----
B|-7-h8-7-6-|-7--2----|-6-------|-5---2--|----------|--------7----|-9--
G|----------|----2----|----6----|-----4--|----------|-------6-----|----
D|----------|----0----|----5----|-----4--|----------|----7--------|----
A|----------|---------|---------|-----5--|----------|---5---------|----
E|----------|---------|----5----|--------|----------|-------------|----

e|----10-|-------7----|-----7-h10-9-7-|-10-----7-5-|-4-----7-12-|-9------|
B|-------|-8------8---|-5h7-----------|-----8------|----3-------|---10---|
G|-------|----------7-|-6-------------|-----7------|----4-------|---9----|
D|--9----|----9-------|-5-------------|-----9------|----3-------|---11---|
A|-8-----|---7--------|-0-------------|-----7------|------------|---9----|
E|-------|------------|---------------|------------|------------|------9h|

e|-------|7-----|-------|5----|-----------|-----------|-------|-------|
B|----8-7|--8---|---7-5h|7----|-----------|-------0---|---0-5-|-------|
G|----8--|--7---|---6---|4----|--4-h7-6-4-|-7--4----2-|-1---4-|-6-----|
D|----7--|--9---|---5---|0----|-----------|----4------|-----3-|-4-----|
A|-------|--7---|-------|-----|-----------|-----------|-2-----|-5-----|
E|-7-----|----7h|5------|-----|-----------|----3------|-1---4-|-5-5h6-|

e|--------|7----|-9-575-4-5-7-9-|-10----2-|--------|
B|----8-7h|7----|-7---------9-8-|-7-----2-|-3------|
G|----8---|7----|-6-------------|-------0-|--------|
D|----7---|6----|-5-------------|---------|-4------|
A|--------|-----|-0-------------|-------0-|-5------|
E|-7------|0----|---------------|---------|-5------|


DISFRÚTENLA QUE ES MUY HERMOSA, ES MUY MUY DULCE... INTERPRÉTENLA
CON MUCHA PASIÓN!!!

            
            
Suggest correction
Creating personal tab
Creating personal tab
You can edit any tab online and save it as your Personal.

You can edit, replace or remove any tab part or add personal notes – all changes will be seen only by you.

Personal tabs can be accessed anytime from any device, even offline.
Learn more »
Give kudos to tab author, rate the tab!
1 2 3 4 5
comments
print report bad tab
guest
Wanna post a correction for this tab? Suggest correction