Oops, an error
Loading. Please wait.

La Razón De Mi Ser tab

version 1
version 1

Whole song

49 views 3 this week
no commentswrite comment
1 2 3 4 5
3 more votes to show rating
add to favorites
×
Save as Personal and add changes to this tab that will be seen only by you. Learn more ›
×
You can save this tab as Personal to edit and correct it or add notes. All changes will be seen only by you. Learn more »
launch autoscroll
font size
0
reset
how to read this tab
guitar tuner
edit
Autoscroll
slow
fast
+/-
esc
set tempo
stop
Aquí está mi transcripción con acordes, y en donde sea necesario, estarán
las tablaturas.

Introducción

  A        E/A        D/A       A       D         A/C#      Bm         E

--5-----9---7---------5---------0-----|----0--2---0------------------------
-----5---------9---------7------2-----|-3------------2------2-3-2------0---
------------------9---------7---2---2-|-2---------------2---4------2---1---
--0---------0---------0---------2-----|-0------------------------------2---
--------------------------------0-----|-----------4---------2----------2---
--------------------------------------|--------------------------------0---


      A        A7           Dsus2
Para mí, eres más que esa sonrisa

     Dm9                 A                E
que suave acaricia mis penas que sabe a poemas


      A        A7           Dsus2
Para mí, eres más que esas promesas

   Dm9               A                    E
escritas en sábanas viejas cuando fuimos uno


         D        A/C#      Bm     A
Nuestra piel embriagada de triunfo

      D         A/C#       Bm         E   Esus4 E
se enredan en trenzas mi cuerpo y el tuyo


           A           D         E
Y esta adicción que consume mi vida

    A          D         F#m       E
tu beso es un vicio, tu aroma intoxica

    D      A/C#      F#m     B/D#
de noche alucino tu rostro divino

  D         F#m       E          D             E/D            D          E
                                                                           
-----0--2-------------0------|---5-2-----5--------7---5-4-0--2-5-2-------0-
--3----------2--------0------|-3-----7-7---7--9-9---9--------3-----353---0-
--2----------2--------1------|-2-----7--------9--------------2--------2--1-
--0----------4--------2------|-0-----0--------0--------------0-----------2-
-------------4--------2------|-------------------------------------------2-
----------------------0------|-------------------------------------------0-

gracias por ser, la razón de mi ser


      A        A7                Dsus2
Para mí, eres más que un ramo de suerte

     Dm9                A                E
que sólo con verte me siento soñando despierto


         D        A/C#     Bm      A
Nuestra piel embriagada de triunfo

      D         A/C#       Bm         E   Esus4 E
se enredan en trenzas mi cuerpo y el tuyo


           A           D         E
Y esta adicción que consume mi vida

    A          D         F#m       E
tu beso es un vicio, tu aroma intoxica

    D      A/C#      F#m     B/D#
de noche alucino tu rostro divino

  D         F#m       E          A   Asus4 A                                          
gracias por ser, la razón de mi ser


         C        G/B     A
Y en un baile de almas desnudas

  C         G/B      G        E
Alientos ardientes, palabras mudas


           A           D         E
Y esta adicción que consume mi vida

    A          D         F#m       E
tu beso es un vicio, tu aroma intoxica

    D      A/C#      F#m     B/D#
de noche alucino tu rostro divino

-----decrece tiempo---------------------------------------------------
  D         F#m       E         D             E/D            D        Asus2
                                                                           
-----0--2------------0------|---5-2-----5--------7---5-4-0--2-5-2--------0-
--3----------2-------0------|-3-----7-7---7--9-9---9--------3-----353----0-
--2----------2-------1------|-2-----7--------9--------------2--------2---2-
--0----------4-------2------|-0-----0--------0--------------0------------2-
-------------4-------2------|--------------------------------------------0-
---------------------0------|----------------------------------------------

gracias por ser la razón de mi ser

*Acordes especiales:
       E A D G B M
Dsus2  x x 0 2 3 0
Dm9    x x 0 2 0 1
A/C#   x 4 2 2 2 x 
B/D#   x 6 4 4 4 x
G/B    x 2 0 0 3 3
Asus2  x 0 2 2 0 0

Transcrito por Eduardo Ronquillo   edward_ron@

            
            
Suggest correction
Creating personal tab
Creating personal tab
You can edit any tab online and save it as your Personal.

You can edit, replace or remove any tab part or add personal notes – all changes will be seen only by you.

Personal tabs can be accessed anytime from any device, even offline.
Learn more »
Give kudos to tab author, rate the tab!
1 2 3 4 5
comments
print report bad tab
guest
Wanna post a correction for this tab? Suggest correction