Oops, an error
Loading. Please wait.

Domingo Día Del Padre tab

89 views 1 this week
no commentswrite comment
1 2 3 4 5
3 more votes to show rating
add to favorites
×
Save as Personal and add changes to this tab that will be seen only by you. Learn more ›
×
You can save this tab as Personal to edit and correct it or add notes. All changes will be seen only by you. Learn more »
launch autoscroll
font size
0
reset
how to read this tab
guitar tuner
edit
Autoscroll
slow
fast
+/-
esc
set tempo
stop
E--2-4-5-4-2-5-5-5-|--2-4-5-4-2-5-0-0-----|---------0-7|
B-5----------------|5-----------------3-2-|2-3-2-1-2---|
G------------------|----------------------|------------|
D------------------|----------------------|------------|
A------------------|----------------------|------------|
E------------------|----------------------|------------|

E-7-10-7-9-5-9-7-|---10-10---7-9-10-9-7-10-9-9--|
B----------------|--7------11-------------------|
G----------------|-7----------------------------|
D----------------|7-----------------------------|
A----------------|------------------------------|
E----------------|------------------------------|

E--5-7-9-7-5-9-7-7---4-5-7-5-4-7-5-5-|
B-9-----------------7----------------|
G------------------------------------|
D------------------------------------|
A------------------------------------|
E------------------------------------|

E----10-10---7-9-10-9-7-10-9-9--|--5-7-9-7-5-9-7-7|
B---7------11-------------------|-9---------------|
G--7----------------------------|-----------------|
D-7-----------------------------|-----------------|
A-------------------------------|-----------------|
E-------------------------------|-----------------|

E----------------|
B----------------|
G----------------|
D----------------|
A-4-5-4-2--------|
E----------5-4-2-|

Introducción:LAm x2 - REm x2 - MI7 x2 - LAm

A]
LAm
Domingo dia del padre
                  MI7
En un asilo de ansianos
Hay un abuelo q esta
               LAm
Al infinito mirando

B]
                    REm
Son las 10 de la mañana
                       LAm
Y sus hijos no han llegado
                    MI7
Piensa q cera el trabajo
                LAm
Y quiere justificarlo

A]
Quizas llegaron los nietos

  REm REm     MI7  LAm
 ----------------------------
 ---3------3----------------1    (es un puente que hace
 --2-----2--------1------2---     es opcional,
 -0--------------------------     pero queda lindo
 -----4-------2------0-------     y suena bien)
 ----------------------------
Tendran q hacer el asado         (es solamente
A LA tarde vendran todos          en el 2º verso
Para entretenerme un rato         y sigue con los mismos
                                  acorde como antes)
B]
Pero hay un reloj q avanza
Y el q no quiere mirarlo
Hoy como nunca las horas
Se le han pasado volando

Repite intro.

A]
Ya son las 6 de la tarde
Los q estaban se marcharon
Familiares de otro abuelo
Porque los de el no llegaron
B]
Q pensaran esos hijos
Q a su padre abandonaron
Deben creer q en la tierra
No hay nadie para jusgarlo

A]
Por alli hay un mate frio
Q espera el calor humano
Como espera las caricias
El rostro de aquel anciano

B]
Ya son las 10 de la noche
Las luces se han apagado
Y en el rincón de una pieza
Hay un abuelo llorando

LAm
Dijeron sus compañeros
Q lo oyeron murmurando
Domingo dia del padre
Porque de abran inventado


esta es una hermosa cancion de Carlos Ramon Fernandez,
espero que les guste mi transcripcion, cualquier
cosa a mi mail: marote_93cj@
una buena moraleja deja la cancion,siempre tenemos que estar
orgullosos de nuestros padres, y no abandonarnos
ellos nos dieron la vida y nos cuidaron.
porfavor voten a su criterio.
saludos.

            
            
Suggest correction
Creating personal tab
Creating personal tab
You can edit any tab online and save it as your Personal.

You can edit, replace or remove any tab part or add personal notes – all changes will be seen only by you.

Personal tabs can be accessed anytime from any device, even offline.
Learn more »
Give kudos to tab author, rate the tab!
1 2 3 4 5
comments
print report bad tab
guest
Wanna post a correction for this tab? Suggest correction