Oops, an error
Loading. Please wait.

Enamorado De Un Sueño tab

27 views 1 this week
no commentswrite comment
1 2 3 4 5
3 more votes to show rating
add to favorites
×
Save as Personal and add changes to this tab that will be seen only by you. Learn more ›
×
You can save this tab as Personal to edit and correct it or add notes. All changes will be seen only by you. Learn more »
launch autoscroll
font size
0
reset
how to read this tab
guitar tuner
edit
Autoscroll
slow
fast
+/-
esc
set tempo
stop
Chacarera Simple

Intro:

D                 A7                Bm

|----1-0----1-0--------0-0-----0--------------------------|
|--2------2------3-2-------3-2---3-2-0--3-3-2-0-2-0---0---|
|---------------------------------------------------2-----|
|---------------------------------------------------------|
|---------------------------------------------------------|
|---------------------------------------------------------|

  G          A7     D

|--5-10--5---7---3--2---------------------------|
|--7-12--7---8---5--3---------------------------|
|-----------------------------------------------|
|-----------------------------------------------|
|-----------------------------------------------|
|-----------------------------------------------|


D                A7
Hubiese querido ser
                    Bm
De piedra pa no sentirte
                 Em
Para no sufrir así
          A7         D
Por este amor imposible.

Tú tienes tu vida, Y yo
Un simple amor pasajero
Tu vas del brazo con el
Yo por tenerte me muero.

Qué cosas las del amor
Hay que amar para contarlo
Yo pienso que es imposible
Mi corazón lo contrario.

Estribillo:
           F#7         Bm
Queriendo estoy sin razón
   E7                   A7
A un amor que tiene dueño
                  Em
Hay mi pobre corazón
    A7           D
Enamorado de un sueño.

En el aire la verdad
Peligrosamente asecha
Vivimos amándonos
Al filo de la sospecha.

Ojala pudiera ser
La realidad de otro modo
Y no tener que ocultar
Lo mucho que yo te adoro.

Sigamos amándonos
Aunque el destino no quiera
Yo he de quererte hasta el fin
Aunque tenerte no pueda.

Queriendo estoy sin razón
A un amor que tiene dueño
Hay mi pobre corazón
Enamorado de un sueño.

            
            
Suggest correction
Creating personal tab
Creating personal tab
You can edit any tab online and save it as your Personal.

You can edit, replace or remove any tab part or add personal notes – all changes will be seen only by you.

Personal tabs can be accessed anytime from any device, even offline.
Learn more »
Give kudos to tab author, rate the tab!
1 2 3 4 5
comments
print report bad tab
guest
Wanna post a correction for this tab? Suggest correction