Oops, an error
Loading. Please wait.

Mas Allá tab

47 views 1 this week
no commentswrite comment
1 2 3 4 5
3 more votes to show rating
add to favorites
×
Save as Personal and add changes to this tab that will be seen only by you. Learn more ›
×
You can save this tab as Personal to edit and correct it or add notes. All changes will be seen only by you. Learn more »
launch autoscroll
font size
0
reset
how to read this tab
guitar tuner
edit
Autoscroll
slow
fast
+/-
esc
set tempo
stop
Le hice un arreglo al intro, creo que se oye bastante cool
        

        G......       G           Em7         C9
        1 -------3/5-3-------3/5-3-------3/5-3--        
        2 -0-1-3-------0-1-3-------0-1-3--------
        3 -------------------------------------- 
        4 -----------------------2-------------- 
        5 -----------------------------------3--
        6 -----------3--------------------------  

                      D7
           -3-0-2-3/5-7-----------------
           -----------------------------
           -----------------------------
           -----------------------------
           -----------5-----------------
           -----------------------------

...           G
Más allá del Sol,
              Em
más allá del mar,
              C9 
más allá de Dios,
            D7
poco más allá.

(se repiten los acordes)

Más allá del bien,
más allá del mal,
más allá después,
poco más allá.

         G           Em
Ella se fue de la ciudad
         C            D7
y se escondió aún más allá.
Se echó a correr, se echó a volar
y se perdió aún más allá.

Más allá del Yin,
más allá del Yang,
más allá del fin,
poco más allá.

Más allá de ser o no ser,
más allá de estar o no estar,
más allá de ver,
poco más allá.

Ella se fue de la ciudad
y se escondió aun más allá.
Se echó a correr, se echó a volar
y se perdió aun más allá.

Más allá del Sol,
más allá del mar,
más allá de Dios
se fue más allá.  
    
intro y fin

Em7= 022033
C9=  032033
D7=  557575
G=   320033
/=   slide   

Quiero agradecer a mi amigo Salas. Esta transcripción es de ambos. 
Cualquier duda ahí está mi correo.
'que el silencio arrastre mis sueños detrás de tu sonrisa'
Saludos desde Puebla, México
Suggest correction
Creating personal tab
Creating personal tab
You can edit any tab online and save it as your Personal.

You can edit, replace or remove any tab part or add personal notes – all changes will be seen only by you.

Personal tabs can be accessed anytime from any device, even offline.
Learn more »
Give kudos to tab author, rate the tab!
1 2 3 4 5
comments
print report bad tab
guest
Wanna post a correction for this tab? Suggest correction