Oops, an error
Loading. Please wait.

La Revolución (Presentación) chords

19 views 1 this week
no commentswrite comment
1 2 3 4 5
3 more votes to show rating
add to favorites
×
Save as Personal and add changes to this tab that will be seen only by you. Learn more ›
×
You can save this tab as Personal to edit and correct it or add notes. All changes will be seen only by you. Learn more »
launch autoscroll
font size
0
reset
transpose
0
reset
simplify chords
display chords
guitar tuner
edit
Autoscroll
slow
fast
+/-
esc
set tempo
stop
Strumming
There is no strumming pattern for this song yet. and get +5 IQ
Introducción:

      D menor
1|--------1--------------------------------------------
2|------3------------3---------3----------3------------
3|----2------------0---------0----------0--------------
4|--0------------0---------0----------0----------------
5|-------------3---------2----------1------------------
6|-----------------------------------------------------
      D menor
1|--------1--------------------------------------------
2|------3------------3---------3----------3------------
3|----2------------0---------0----------0--------------
4|--0------------0---------0----------0----------------
5|-------------3---------2----------1------------------
6|-----------------------------------------------------

      D menor  
1|--------1^0------0-------------3^2-------------------
2|------3------3---------------2-----------------------
3|----2----------2-----------2--------Re m,LA7,Rem,LA7m
4|--0----------------------2---------------------------
5|-----------------------------------------------------
6|-----------------------------------------------------

                                               
Hermano te voy a contar una historia de amor, de una tierra en el mar y de su revolución

Dm, A7, Dm, A7                       REm        Gm LA7 REm LA7
Aah..                       y dijo el troveroo..
Dm             Gm    A7 Dm
cuando salia la luna lunera,
                Gm    A7 Dm   
asi cantaba mi vieja mulata
               Gm A7     Dm            
detrás de una leja na estrella 
                    C     Gm A7 Dm A7
hay una habana de plata    aaahh
F
y un dia recogí mi alma

y le rezé a los cuatro vientos

ya no aguanto mas la espera 
                                           C
me voy pa cai mi negra , en un barco carbonero
                 Gm
y caminito a mi sueño
    A7                 Dm A7 Gm
el viento llevaba este son, son son
        A7            Dm
y yo compuse esta canción
    A7
pensando en ti


** solo de trompeta **

Gm
deja que cruce tus puertas , princesita marinera
                                        A7
que siguen siendo tus besos , mii ceguera
Dm              Gm A7 Dm  
aqui me tienes a tu verita
                      Gm  A7 Dm
formando castillos de en el cielo
                Gm  A7 Dm
vengo a curarte las heridas
               Gm   A7 Dm
con las balas de un bolero
              Gm    A7 Dm 
que si mi si no es quererte
            Gm     A7 Dm
querer, que yo te quiera
          Gm   A7 Dm             
yo reniego de mi sangre,
            Gm    A7  
de mi casa y mi bandera
Dm
son son son, de la revolución, son son son de la revolución
                      Dm A7 
mire usted, q mire usted ,

que mire la banda que buena es
Dm                      Gm A7 Dm
que mi guitarra ya se va revelando, 
                           Gm A7 Dm
que mi lenguita ya se esta envenenando
                           G, A7 Dm
que pa vivir ay que morir , matando
                                                                    Dm A7                  Dm
hermano te voy a contar una historia de amor de una tierra en el mar          y de su revolución


** Dedicada a Antonio Martinez Ares , un tio con una pluma q se sale, para ti pishita, y por ti, 
va la presentación de tu comparsa que siempre me ha gustado, y siempre esperando que algún dia vuelvas 
al mundo de donde naciste, y en el que te criaste ** 

cádiz a 11 marzo 2004

            
            
Suggest correction
Creating personal tab
Creating personal tab
You can edit any tab online and save it as your Personal.

You can edit, replace or remove any tab part or add personal notes – all changes will be seen only by you.

Personal tabs can be accessed anytime from any device, even offline.
Learn more »
Give kudos to tab author, rate the tab!
1 2 3 4 5
comments
print report bad tab
guest
Wanna post a correction for this tab? Suggest correction