Oops, an error
Loading. Please wait.

Pasodoble De Los Pringaos chords

1 view 1 this week
no commentswrite comment
1 2 3 4 5
3 more votes to show rating
add to favorites
×
Save as Personal and add changes to this tab that will be seen only by you. Learn more ›
×
You can save this tab as Personal to edit and correct it or add notes. All changes will be seen only by you. Learn more »
launch autoscroll
font size
0
reset
transpose
0
reset
simplify chords
display chords
guitar tuner
edit
Autoscroll
slow
fast
+/-
esc
set tempo
stop
Strumming
There is no strumming pattern for this song yet. and get +5 IQ
-   A7    Bm7   E7   F#7   D
e|---0------2------0-----2------2--------------------------
B|---2------3------0-----2------3--------------------------
G|---1------2------1-----3------2--------------------------
D|---2------4------0-----2------0--------------------------
A|---0------2------2-----4------x--------------------------
E|---x------x------0-----2------x--------------------------

Colocar cejilla en 1º traste para tocar en el tono original.


   A7         Bm7        A7          Bm7
e|---0-0---0-----2-2---------0-0---0-----2-2------------
B|---2-2---2-----3-3---------2-2---2-----3-3------------
G|---1-1---1-----2-2---------1-1---1-----2-2------------
D|------------------------------------------------------
A|-0-----0---4-2-----------0-----0---4-2----------------
E|-------------------0-2-4-------------------0-2-4------

Redoble La7M (Marchando pasodoble especialida de la casa
pa la clientela fija. Oido cocina)

  E7         A7 
Taratataratatarara

                   E7          Bm7-E7         A7 
Bienvenido a mi terraza tomen asiento esta es su casa
                   E7                     A7 
bienvenido a mi terraza y pidan por esa boquita

pidan lo que quieran pidan sin reparo
          F#7           Bm7
la casa invita la casa invita
                     E7             Bm7-E7      A7 
traigo un rosario de tapas con los sabores de mi tacita
F#7                 Bm7             E7             A7 
traigo un rosario de tapas el que las prueba se santifica
                                                       F#7 Bm7
sabores dulces salados y amargos son la receta del viejo barrio
           E7            Bm7            E7          A7 
para el deleite de los paladares mas exquisitos mas delicaos
          E7                      A7          F#7 Bm7    E7 A7 
que sabe a mar que sabe a los rebozaeros de la caleta del mentidero
          Bm7       E7            A7 
que sabe a viña que sabe a santa maria
  F#7         Bm7      E7             A7 
rosarillo y nazareno que sabe a la mare mia
   D      E7      A7 
perdonen señores clientes
        F#7                                 Bm7
si la boquita se me hace agua y no se me entiende
  E7               Bm7      E7           A7 
que cai na mas que olerte dan ganitas de comerte

Para ver mas acordes de carnaval 

            
            
Suggest correction
Creating personal tab
Creating personal tab
You can edit any tab online and save it as your Personal.

You can edit, replace or remove any tab part or add personal notes – all changes will be seen only by you.

Personal tabs can be accessed anytime from any device, even offline.
Learn more »
Give kudos to tab author, rate the tab!
1 2 3 4 5
comments
print report bad tab
guest
Wanna post a correction for this tab? Suggest correction