Oops, an error
Loading. Please wait.

Momentos De Reflexión tab

10 views 1 this week
no commentswrite comment
1 2 3 4 5
3 more votes to show rating
add to favorites
×
Save as Personal and add changes to this tab that will be seen only by you. Learn more ›
×
You can save this tab as Personal to edit and correct it or add notes. All changes will be seen only by you. Learn more »
launch autoscroll
font size
0
reset
how to read this tab
guitar tuner
edit
Autoscroll
slow
fast
+/-
esc
set tempo
stop
Las guitarras deben afinarse en Drop D pero en esta tab
las adapte para que puedan tocarla en la afinacion estandar
Es la version que tocaron en el jammin
Esta es una de mis favoritas poota la letra noc zi ezte del too bn
saluoz a mi amia andrea tkm momwola xD

[Intro]

 D5
|----------------------------------|
|--------9-9-9-6-6-6-7-7-7-7-7-7-7-|
|-7-7-7----------------------------|
|-7-7-7----------------------------| [x2]
|-5-5-5----------------------------|
|----------------------------------|
         . . . . . . . . . . . . .

 A5             G5
|----------------------------------|
|----------------------------------|
|----------------------------------|
|-7-7-7-7-7-7-7-5--5-5--5-5--5-5---|
|-7-7-7-7-7-7-7-5--5-5--5-5--5-5---|
|-5-5-5-5-5-5-5-3--3-3--3-3--3-3---|

 D5
|----------------------------------|
|--------9-9-9-6-6-6-7-7-7-7-7-7-7-|
|-7-7-7----------------------------|
|-7-7-7----------------------------| [x2]
|-5-5-5----------------------------|
|----------------------------------|
         . . . . . . . . . . . . .

 A5             G5
|----------------------------------|
|----------------------------------|
|----------------------------------|
|-7-7-7-7-7-7-7-5--5-5--5-5--5-5---|
|-7-7-7-7-7-7-7-5--5-5--5-5--5-5---|
|-5-5-5-5-5-5-5-3--3-3--3-3--3-3---|

  G5
|----------------------------------|
|----------------------------------|
|----------------------------------|
|-5-5-5-5-5-5-5-5--5-5--5-5--5-5---|
|-5-5-5-5-5-5-5-5--5-5--5-5--5-5---|
|-3-3-3-3-3-3-3-3--3-3--3-3--3-3---|

  B5    C#5 D5                     A5           G5
|---------------------------------------------------------|
|---------------------------------------------------------|
|---------------------------------------------------------|
|-9-9-9--11-12-12-12-12-12-12-12---7-7-7--7-7---5-5-5-5-5-|
|-9-9-9--11-12-12-12-12-12-12-12---7-7-7--7-7---5-5-5-5-5-|
|-7-7-7---9-10-10-10-10-10-10-10---5-5-5--5-5---3-3-3-3-3-|
  . .

  B5    C#5 D5                     A5           G5
|--------------------------------------------------|
|--------------------------------------------------|
|--------------------------------------------------|
|-9-9-9--11-12-12-12-12-12-12-12---7-7-7--7-7---5--|
|-9-9-9--11-12-12-12-12-12-12-12---7-7-7--7-7---5--|
|-7-7-7---9-10-10-10-10-10-10-10---5-5-5--5-5---3--|
  . .

[Verso]

Despierto en este oscuro ataud
Trato de Escapar pero todo es en vano

|---------------------------------|
|---------------------------------|
|-12-12-12-12-11-11-11-11--9-9-9--|
|---------------------------------| [x2]
|---------------------------------|
|---------------------------------|

|---------------------------------|
|---------------------------------|
|---------------------------------|
|-12-11-9---------12-11-9-12-11---|
|---------12-12-------------------|
|---------------------------------|

|---------------------------------|
|---------------------------------|
|-12-12-12-12-11-11-11-11--9-9-9--|
|---------------------------------| [x2]
|---------------------------------|
|---------------------------------|

|---------------------------------|
|---------------------------------|
|---------------------------------|
|-12-11-9---------12-11-9-12-11---|
|---------12-12-------------------|
|---------------------------------|

[Coro]

A5          G5                    D5
las rosas emanan funestos olores
A5          G5                    D5
quien sera mi sustento hasta morir

  A5
|----------------------------------|
|----------------------------------|
|----------------------------------|
|-5-5-5-5-5-5-5-5--5-5--5-5--5-5---|
|-7-7-7-7-7-7-7-7--7-7--7-7--7-7---|
|-5-5-5-5-5-5-5-5--5-5--5-5--5-5---|

  B5    C#5 D5                     A5           G5
|---------------------------------------------------------|
|---------------------------------------------------------|
|---------------------------------------------------------|
|-9-9-9--11-12-12-12-12-12-12-12---7-7-7--7-7---5-5-5-5-5-|
|-9-9-9--11-12-12-12-12-12-12-12---7-7-7--7-7---5-5-5-5-5-|
|-7-7-7---9-10-10-10-10-10-10-10---5-5-5--5-5---3-3-3-3-3-|
  . .

  B5    C#5 D5                     A5           G5
|--------------------------------------------------|
|--------------------------------------------------|
|--------------------------------------------------|
|-9-9-9--11-12-12-12-12-12-12-12---7-7-7--7-7---5--|
|-9-9-9--11-12-12-12-12-12-12-12---7-7-7--7-7---5--|
|-7-7-7---9-10-10-10-10-10-10-10---5-5-5--5-5---3--|
  . .

[Verso 2]

no se ni como llegue aqui
solo se ue gritar no servira de nada

|---------------------------------|
|---------------------------------|
|-12-12-12-12-11-11-11-11--9-9-9--|
|---------------------------------| [x2]
|---------------------------------|
|---------------------------------|

|---------------------------------|
|---------------------------------|
|---------------------------------|
|-12-11-9---------12-11-9-12-11---|
|---------12-12-------------------|
|---------------------------------|

|---------------------------------|
|---------------------------------|
|-12-12-12-12-11-11-11-11--9-9-9--|
|---------------------------------| [x2]
|---------------------------------|
|---------------------------------|

|---------------------------------|
|---------------------------------|
|---------------------------------|
|-12-11-9---------12-11-9-12-11---|
|---------12-12-------------------|

[Coro]

A5          G5                 D5
solo una hora para arrepentirme
A5          G5                 D5
llorar hasta no poder respirar

A5          G5
sera lo que merezco
A5          G5
mi corazon corre
A5          G5
mi sudor aumenta
A5          G5
mis ojos se cierran, me muero

______________________________________________________________________

NOTA:

 D5

|---------------------------------|
|---------------------------------|
|-7-------------------------------|
|-7-------------------------------|
|-5-------------------------------|
|-5-------------------------------|

______________________________________________________________________

spectro_punk5@

alaoz!

            
            
Suggest correction
Creating personal tab
Creating personal tab
You can edit any tab online and save it as your Personal.

You can edit, replace or remove any tab part or add personal notes – all changes will be seen only by you.

Personal tabs can be accessed anytime from any device, even offline.
Learn more »
Give kudos to tab author, rate the tab!
1 2 3 4 5
comments
print report bad tab
guest
Wanna post a correction for this tab? Suggest correction