Oops, an error
Loading. Please wait.

El Arte Del Engaño tab

version 1
version 1

Whole song

422 views 1 this week
no commentswrite comment
1 2 3 4 5
3 more votes to show rating
add to favorites
×
Save as Personal and add changes to this tab that will be seen only by you. Learn more ›
×
You can save this tab as Personal to edit and correct it or add notes. All changes will be seen only by you. Learn more »
launch autoscroll
font size
0
reset
how to read this tab
guitar tuner
edit
Autoscroll
slow
fast
+/-
esc
set tempo
stop
Aca esta la rola que han pedido mucho y espero que les guste


            intro
E-------------------------------
B-------------------------------
G-------------------------------
D-------------------------------
A--8-7-8-5---8-7-8-5------------
E-------------------------------

        Dm                              Am
E----------5------------5-------------------5------------5--------
B-------------6------------6-------------------5------------5-----
G----------------7------------7-------------------5------------5--
D-----------------------------------------------------------------
A-8-7-8-5------------5-------------8-7-8--------------------------
E----------------------------------------5-------------5----------

         G               E
E-----------------------------------
B-----------------------------------
G-----------------------------------
D-----------------------------------
A-8-7-8-10----8-7-8-10-8-7----------
E-----------------------------------

Las notas siguen igual?

En el verso cambia un poco el requinto, acá lo tienen.


                           Verso
        Dm          Am             G              E
E------------------------------------------------------------
B------------------------------------------------------------
G------------------------------------------------------------
D------------------------------------------------------------
A-8-7-8-5------8-7-8-12------8-7-8-10-------8-7-8-7----------
E------------------------------------------------------------

En el coro son las misma nota Dm-Am-G-E?.


ESPERO QUE LES GUSTE Y ECHENLE GANAS SALUDOS PARA LA BANDA DE LAGUNAS OAXACA Y
SI TIENEN ALGUN PROBLEMA SOLO ESCRIBANME O SI QUIEREN ALGUNA CANCION QUE NO ESTE
EN ATME PARA QUE YO LAS INGRESE?nos vemos .....

            
            
Suggest correction
Creating personal tab
Creating personal tab
You can edit any tab online and save it as your Personal.

You can edit, replace or remove any tab part or add personal notes – all changes will be seen only by you.

Personal tabs can be accessed anytime from any device, even offline.
Learn more »
Give kudos to tab author, rate the tab!
1 2 3 4 5
comments
print report bad tab
guest
Wanna post a correction for this tab? Suggest correction