Oops, an error
Loading. Please wait.

La Espina tab

39 views 1 this week
no commentswrite comment
1 2 3 4 5
3 more votes to show rating
add to favorites
×
Save as Personal and add changes to this tab that will be seen only by you. Learn more ›
×
You can save this tab as Personal to edit and correct it or add notes. All changes will be seen only by you. Learn more »
launch autoscroll
font size
0
reset
how to read this tab
guitar tuner
edit
Autoscroll
slow
fast
+/-
esc
set tempo
stop
Colaboracion De ****Adolfo Moreno L.****

harm..........
esto va golpeado

E-------------------------------------------------
A--12---------------------------------------------
D----12-------------------------------------------
G------12-----------------------------------------
B------------15-----------------------------------
e----------14--14---------------------------------


E-------------------------------------------------
A--12---------------------------------------------
D----12----------------------%-------%------------
G------12-----------------------------------------
B------------15-----------------------------------
e----------14-------------------------------------


La otra guitarra va así y tambien cuando 
empieza a cantar

E-------------------------------------------------
A-------------------------------------------------
D--777777777777--5555-----------------------------
G-------------------------------------------------
B-------------------------------------------------
e-------------------------------------------------

No fue un dia................

E-------------------------------------------------
A-------------------------------------------------
D--777777777777--5555--------------%------%-------
G-------------------------------------------------
B-------------------------------------------------
e-------------------------------------------------

Un arreglo antes del coro va sí junto con el sax

E-------------------------------------------------
A-----777-----------------------------------------
D-----------5--7----------------------------------
G-------------------------------------------------
B-------------------------------------------------
e-------------------------------------------------

El coro lleva esto

         Por pensar  

E-------------------------------------------------
A-------------------------------------------------
D-------------------------------------------------
G--10--10--10--10--10-----------------------------
B--10--10--10--10--10-----------------------------
e---8---8---8---7---8-----------------------------
            ---lig---
en lo que va a pasar

E-------------------------------------------------
A-------------------------------------------------
D-------------------------------------------------
G--7--7--7--7--7----------------------------------
B--8--8--8--8--8----------------------------------
e--7--7--7--8--7----------------------------------
         --lig---

  al otro dia

E-------------------------------------------------
A-------------------------------------------------
D-------------------------------------------------
G--5--5--5--5--5----------------------------------
B--5--5--5--5--5----------------------------------
e--5--5--5--3--5----------------------------------
         --lig---

E-------------------------------------------------
A-------------------------------------------------
D-------------------------------------------------
G--5--5--5--5--5----------------------------------
B--5--5--5--5--5----------------------------------
e--5--5--5--8--5----------------------------------
         --lig--

ASI VA TODO EL CORO CON ESTAS 4 FIGURAS

harm..........
esto va golpeado

E-------------------------------------------------
A--12---------------------------------------------
D----12-------------------------------------------
G------12-----------------------------------------
B------------15-----------------------------------
e----------14--14---------------------------------


E-------------------------------------------------
A--12---------------------------------------------
D----12-------------------------------------------
G------12----------------%-----------%------------
B------------15-----------------------------------
e----------14-------------------------------------

Cuando empieza otra vez a cantar

    Aaaaaaaaaaaaaatascaaada  
E-------------------------------------------------
A-------------------------------------------------
D--777777777777--5555--777777---------------------  
G------------------------------7--6---------------
B-------------------------------------------------
e-------------------------------------------------

   Laaaaaaaaaaa   ra----zon
E-------------------------------------------------
A------------------------------7-7-7--------------
D--777777777777--5555--777777--------5-7----------  
G-------------------------------------------------
B-------------------------------------------------
e-------------------------------------------------

Y asi se la lleva y se repite el coro


         Por pensar  

E-------------------------------------------------
A-------------------------------------------------
D-------------------------------------------------
G--10--10--10--10--10-----------------------------
B--10--10--10--10--10-----------------------------
e---8---8---8---7---8-----------------------------
            ---lig---
en lo que va a pasar

E-------------------------------------------------
A-------------------------------------------------
D-------------------------------------------------
G--7--7--7--7--7----------------------------------
B--8--8--8--8--8----------------------------------
e--7--7--7--8--7----------------------------------
         --lig---

  al otro dia

E-------------------------------------------------
A-------------------------------------------------
D-------------------------------------------------
G--5--5--5--5--5----------------------------------
B--5--5--5--5--5----------------------------------
e--5--5--5--3--5----------------------------------
         --lig---

E-------------------------------------------------
A-------------------------------------------------
D-------------------------------------------------
G--5--5--5--5--5----------------------------------
B--5--5--5--5--5----------------------------------
e--5--5--5--8--5----------------------------------
         --lig--

  eh eh eh      ah ah ah
E-1--1--1----5---3--3--3--------------------------
A-3--3--3----7---5--5--5--------------------------
D-------------------------------------------------
G-------------------------------------------------
B-------------------------------------------------
e-------------------------------------------------

El solo va así

E-------------------------------------------------
A-------------------------------------------------
D-------------------------------------------------
G-------------------------------------------------
B--12--10--8--7--5--7--8--------------------------
e--12--10--8--7--5--7--8--------------------------

E-------------------------------------------------
A-------------------------------------------------
D-------------------------------------------------
G-------------------------------------------------
B--12--10--8--7--5--7--8--------------------------
e--12--10--8--7--5--7--8--------------------------

E-------------------------------------------------
A-------------------------------------------------
D-------------------------------------------------
G-------------------------------------------------
B--17--15--12--10--8--10--12----------------------
e--17--15--12--10--8--10--12----------------------

E-------------------------------------------------
A-------------------------------------------------
D-------------------------------------------------
G-------------------------------------------------
B--17--15--12--10--8--10--12----------------------
e--17--15--12--10--8--10--12----------------------


esto es el coro con distor
E--1-----3-----5----------------------------------
A--3-----5-----7----------------------------------
D-------------------------------------------------
G-------------------------------------------------
B-------------------------------------------------
e-------------------------------------------------

y re repite esta figura varias veces


E-1--1--1----5----3--3--3----5--------------------
A-3--3--3----7----5--5--5----7--------------------
D-------------------------------------------------
G-------------------------------------------------
B-------------------------------------------------
e-------------------------------------------------

esta va al ultimo

E-------------------------------------------------
A-------------------------------------------------
D--5--7--7-----------5--7--7----------------------
G-----------4444---------------4444---------------
B-------------------------------------------------
e-------------------------------------------------

            
            
Suggest correction
Creating personal tab
Creating personal tab
You can edit any tab online and save it as your Personal.

You can edit, replace or remove any tab part or add personal notes – all changes will be seen only by you.

Personal tabs can be accessed anytime from any device, even offline.
Learn more »
Give kudos to tab author, rate the tab!
1 2 3 4 5
comments
print report bad tab
guest
Wanna post a correction for this tab? Suggest correction