Oops, an error
Loading. Please wait.

Transfusión bass

version 1
version 1

Whole song

600 views 3 this week
no commentswrite comment
1 2 3 4 5
2 more votes to show rating
add to favorites
×
Save as Personal and add changes to this tab that will be seen only by you. Learn more ›
×
You can save this tab as Personal to edit and correct it or add notes. All changes will be seen only by you. Learn more »
launch autoscroll
font size
0
reset
guitar tuner
edit
Autoscroll
slow
fast
+/-
esc
set tempo
stop
     Espero que disfruten tocando esta canción como yo lo hago, y en especial
se la quiero dedicar a una chika genial que quiero mucho y me trae loco.
América, para ti amor. (19/07/01)

Intro:

G|------------------------------------------------------------12-14-15-16-17---|
D|------------12-14-15-16-17----------12-14-------12-15----15------------------|
A|---15----15----------------15----15-------15-14-------15---------------------|
E|------15----------------------15---------------------------------------------|

                    
G|------------12-14-h-15-p-14------------|
D|---15----15-----------------15---------|
A|------15-----------------------15------|
E|----------------------------------15---|

  En medio de tanta             contaminación                 
G|-----------------------------------------------------------------------------|
D|---------------------------------------------------------15-h-17-15----------|
A|-----------15-h-17-15------------15-h-17-15----15-----15------------15-------|
E|---15---15------------17-15---15------------17----13-------------------13----|

G|---------------x-15-h-17---|
D|------15-h-17-x------------|
A|---15----------------------|
E|---------------------------|

  Mi sangre esta parada, no quiere mas circulación
G|-----------------------------------------------------------------------------|
D|---------------------------------------------------------15-h-17-15----------|
A|-----------15-h-17-15------------15-h-17-15----15-----15------------15-------|
E|---15---15------------17-15---15------------17----13-------------------13----|

G|---------------x-15-h-17---|
D|------15-h-17-x------------|
A|---15----------------------|
E|---------------------------|

  La ultima gota        de luz             se apago
G|-----------------------------------------------------------------------------|
D|---------------------------------------------------------15-h-17-15----------|
A|-----------15-h-17-15------------15-h-17-15----15-----15------------15-------|
E|---15---15------------17-15---15------------17----13-------------------13----|

G|---------------------------|
D|------15-h-17-15-----------|
A|---15------------15--------|
E|--------------------13-15--|

 Los ángeles secos     me miran, diciéndome adiós
G|-----------------------------------------------------------------------------|
D|---------------------------------------------------------3-h-5-3-------------|
A|-----------15-h-17-15------------15-h-17-15----15-----3-----------3----------|
E|---15---15------------17-15---15------------17-----1-----------------1--1-3--|

   Inyéctame  un poco                 de tu suspirar
G|------------------------------------------------------------12-14-15-16-17---|
D|------------12-14-15-16-17----------12-14-------12-15----15------------------|
A|---15----15----------------15----15-------15-14-------15---------------------|
E|------15----------------------15---------------------------------------------|

                          Del suero de olvido                 que pueda curar 
G|------------12-14------------------------------------------------------------|
D|---15----15-------15-14-------------12-14-15-16-17----------12-14------------|
A|------15----------------15-15----15----------------15----15-------15-14------|
E|------------------------------15----------------------15----------------15---|

                    
G|------------12-14-15-16-17-----------12-14-h-15-p-14-----------|
D|---15----15-----------------15----15-----------------15--------|
A|------15-----------------------15-----------------------15-----|
E|-----------------------------------------------------------15--|

  De exceso en exceso     que no   puede cicatrizar 
G|------------------------------------------------------------12-14-15-16-17---|
D|------------12-14-15-16-17----------12-14-------12-15----15------------------|
A|---15----15----------------15----15-------15-14-------15---------------------|
E|------15----------------------15---------------------------------------------|


G|------------12-14-h-15-p-14------------|
D|---15----15-----------------15---------|
A|------15-----------------------15------|
E|----------------------------------15---|

 Las llagas del alma                que nunca   jamás cerrara
G|-----------------------------------------------------------------------------|
D|------------12-14-14-h-15-p-14----------------12-14----------15----15--------|
A|---15----15--------------------15----15----15-------15-14-------15-----------|
E|------15--------------------------15----15----------------15-----------------|

                                       Huoo   me duele decir llega la muerte
G|---12-14-h-15-p-14---------------|-------------------------------------------|
D|-------------------15----15-17---|---17--17-----15--15--------17----17----17-|
A|----------------------15---------|---17--17-----15--15--------15----15----15-|
E|---------------------------------|-------------------------------------------|

         Transfusión para este amor            enfermo
G|------------------------------------------|----------------------------------|
D|---17----------17----17--------17----17---|------15----15-------15----15-----|
A|---15----------15----15--------15----15---|------15----15-------15----15-----|
E|------------------------------------------|----------------------------------|

     Transfusión para    poder             hacerlo   una ves mas
G|-------------------------------------|---------------------------------------|
D|-----------17----17-------17----17---|-------15----15-------15----15---------|
A|-----------15----15-------15----15---|-------15----15-------15----15---------|
E|-------------------------------------|---------------------------------------|

     Transfusión para   mi  amor               enfermo   de   verdad
G|----------------------------------------|------------------------------------|
D|-----------17----17--------17----17-----|-------15----15-------15----15------|
A|-----------15----15--------15----15-----|-------15----15-------15----15------|
E|----------------------------------------|------------------------------------|

    Hooo     me duele decir  llega la muerte                 y a si
G|-----------------------------------------------------------------------------|
D|-----17--------15-----15--------17----17-------17----17---------17----17-----|
A|-----17--------15-----15--------15----15-------15----15---------17----17-----|
E|-----------------------------------------------------------------------------|

    Solo a los do-os   infecta este-e fin                
G|------------------------------------------------|
D|-------15----15--------17----17------17----17---|
A|-------15----15--------15----15------15----15---|
E|------------------------------------------------|

    Ohuoo....      Ohuoo....       Ohuoo....
G|----------------------------------------------------------------|
D|-----17------17---16--15-----15-----17-----17-------17-----17---|
A|-----17------17---16--15-----15-----15-----15-------15-----15---|
E|----------------------------------------------------------------|

    Ohuoo....       Ohuoo....       Ohuoo     ye ha       
G|----------------------------------------------------------------|
D|-----17-----17-------15-----15-------17-----17------17-----17---|
A|-----17-----17-------15-----15-------15-----15------15-----15---|
E|----------------------------------------------------------------|

    Ohuoo....       Ohuoo....       Ohuoo     huuu...
G|----------------------------------------------------------------|
D|-----17-----17-------15-----15-------17-----17------17-----17---|
A|-----17-----17-------15-----15-------15-----15------15-----15---|
E|----------------------------------------------------------------|

    Ohuoo....       Ohuoo....       Transfusión... 
G|--------------------------------|--------------------------------------------|
D|-----17-----17-------15-----15--|------------------12-14-15-16-17-----16-----|
A|-----17-----17-------15-----15--|---------15----15--------------------15-----|
E|--------------------------------|------------15-----------------------15-----|


     En la guitarra se puede tocar de la misma manera, con la diferencia que esto
se hace en los primeros Trastes.

            
            
Suggest correction
Creating personal tab
Creating personal tab
You can edit any tab online and save it as your Personal.

You can edit, replace or remove any tab part or add personal notes – all changes will be seen only by you.

Personal tabs can be accessed anytime from any device, even offline.
Learn more »
Give kudos to tab author, rate the tab!
1 2 3 4 5
comments
print report bad tab
guest
Wanna post a correction for this tab? Suggest correction