Oops, an error
Loading. Please wait.

Transfusión bass

version 2
version 2

Whole song

334 views 3 this week
no commentswrite comment
1 2 3 4 5
3 more votes to show rating
add to favorites
×
Save as Personal and add changes to this tab that will be seen only by you. Learn more ›
×
You can save this tab as Personal to edit and correct it or add notes. All changes will be seen only by you. Learn more »
launch autoscroll
font size
0
reset
guitar tuner
edit
Autoscroll
slow
fast
+/-
esc
set tempo
stop
?TRANSFUCION?

LA CANCION ESTA MUY CHIDA, Y ESPERO QUE LA PUEDAN SACAR,
 TRANSCRIBI TODA LA CANCION COMO VA, PARA QUE LES SEA UN
POCO MAS FACIL IDENTIFICAR LAS PARTES DE LAS QUE ESTA
COMPUESTA ESTA CANCION, SOLO ES CUESTION DE QUE LA
PRACTIQUEN MUCHO Y AL MOMENTO DE TOCARLA EN PUBLICO NO
SE ESPANTEN,( ESO SE LOS DIGO POR EXPERIENCIA)

?DIESEL? DE CD NEZA. marcos_842@
INTRO

E?8---------------------8---------------8---
A---10--------------------10---------10-----
D-----10--------------------10-----10-------
G--------7-9-10-11-12---------7?9-----------

E------------------------------------------13--
A?8----------------------8---------------15----
D---10--------------------10-----------15------
G-----10?12-14-15-16-17-----10-12-14~15--------

EN MEDIO DE TANTA CONTAMINACION..

E?8------------8------------8-----
A---10-------10?10--------10------
D----10~12-10-----10~12-10--------
G---------------------------------


E--------------------------------
A?8-------------8-----------------
D?-10---------10?10---------------
G----10~12-10-----10-12-X-15-17?--


MI SANGRE ESTA PARADA NO QUIERE MAS CIRCULACION?

E?8------------8------------8-----
A---10-------10?10--------10------
D----10~12-10-----10~12-10--------
G---------------------------------


E---------------------------------
A?8-------------8-----------------
D?-10---------10?10---------------
G----10~12-10------10~12-X-15-17?-

LA ULTIMA GOTA DE LUZ SE ACABO..

E?8------------8------------8-----
A---10-------10?10--------10------
D----10~12-10-----10-12~10--------
G---------------------------------

E---------------------------------
A?8-------------8----------8------
D---10--------10?10------10-------
G-----10~12-10----10~12-10--------


LOS ANGELES SECOS ME MIRAN Y DICEN ADIOS..

E?8------------8------------8-----
A---10-------10?10--------10------
D----10~12-10-----10-12~10--------
G---------------------------------

E?1--------1?1?3---
A---3-----3--------
D----3~5-3---------
G------------------

INYECTAME UN POCO DE TU SUSPIRAR..

E?8---------------------8---------------8---
A---10--------------------10---------10-----
D-----10--------------------10-----10-------
G--------7-9-10-11-12---------7?9-----------

E------------------------------------------13--
A?8----------------------8---------------15----
D---10--------------------10-----------15------
G-----10?12-14-15-16-17-----10-12-14-15--------


DEL SUERO DE OLVIDO QUE PUEDA CURAR..

E?8---------------------8---------------8---
A---10--------------------10---------10-----
D-----10--------------------10-----10-------
G--------7-9-10-11-12---------7?9-----------

E------------------------------------------13--
A?8----------------------8---------------15----
D---10--------------------10-----------15------
G-----10?12-14-15-16-17-----10-12-14-15--------


DE EXCESO EN EXCESO QUE NO PUEDE CICATRIZAR

E?8---------------------8---------------8---
A---10--------------------10---------10-----
D-----10--------------------10-----10-------
G--------7-9-10-11-12---------7?9-----------

E------------------------------------------13--
A?8----------------------8---------------15----
D---10--------------------10-----------15------
G-----10?12-14-15-16-17-----10-12-14-15--------


LAS LLAGAS DEL ALMA QUE NUNCA JAMAS CERRARAN

E?8---------------------8---------------8---
A---10--------------------10---------10-----
D-----10--------------------10-----10-------
G--------7-9-10-11-12---------7?9-----------

E--------------------------------------------
A?8----------------------8-------------------
D---10--------------------10-----------------
G-----10?12-14-15-16-17-----10-12------------


TODA ESTA PARTE SE TOCAN LAS 3
 CUERDAS AL MISMO TIEMPO.

HOOO ME DULE DECIR  LLEGA LA MUERTE

E?15--------
A-----------
D-------17--  X 2
G-----16----

E?13--------
A-----------
D-------15-- X 2
G-----14----
E?8---------
A-----------
D-----10?--  X 8
G----9------


..ENFERMO

E?13--------
A-----------
D-------15-- X 4
G-----14----

E?8---------
A-----------
D------10?-- X 4
G----9------

HOOO ME DULE DECIR  LLEGA LA MUERTE

E?15--------
A-----------
D-------17--  X 2
G-----16----

E?13--------
A-----------
D-------15-- X 2
G-----14----


E?8---------
A-----------
D-----10?--  X 8
G----9------


E?15--------
A-----------
D-------17--  X 2
G-----16----

E?13--------
A-----------
D-------15-- X 2
G-----14----


TRANSFUCION..

E?8------------------
A---10---------------
D----10--------------
G------7-9-10-11-12--

E--------------------
A?10-----------------
D----12--------------
G----12--------------
Suggest correction
Creating personal tab
Creating personal tab
You can edit any tab online and save it as your Personal.

You can edit, replace or remove any tab part or add personal notes – all changes will be seen only by you.

Personal tabs can be accessed anytime from any device, even offline.
Learn more »
Give kudos to tab author, rate the tab!
1 2 3 4 5
comments
print report bad tab
guest
Wanna post a correction for this tab? Suggest correction