Oops, an error
Loading. Please wait.

Zenit tab

version 1
version 1

Whole song

139 views 3 this week
no commentswrite comment
1 2 3 4 5
3 more votes to show rating
add to favorites
×
Save as Personal and add changes to this tab that will be seen only by you. Learn more ›
×
You can save this tab as Personal to edit and correct it or add notes. All changes will be seen only by you. Learn more »
launch autoscroll
font size
0
reset
how to read this tab
guitar tuner
edit
Autoscroll
slow
fast
+/-
esc
set tempo
stop
Esta versión esta muy buena,
Deben de escuchar la rola porque en los coros esta un poco raro
espero que les salga.


Acordes:  E: 000220  A: 022200

INTRO: Esto toca la guitarra 1 hasta llegar  los coros

            E E         E  E        A  A        A A
e |--------------------------------------------------------------------|
B |--------------------------------------------------------------------|
G |---------1--1--------1--1--------2--2--------2--2-------------------|
D |---------2--2--------2--2--------2--2--------2--2----2/4--2---------|
A |--0--2/4------0--2/4------0--2/4------0--2/4------------------4-----|
E |--------------------------------------------------------------------|
E                                                         A
Creí cuando dijeron que la Luna se dormía cuando salía el Sol
E
Creí cuando dijeron que el diablo se escondía husmeando
        A
en las esquinas de la habitación
E
Creí además porque dijeron las maestras miopes que el Sol no se
A
veía de frente
E                                                        A
Y yo me creí cuando dijeron que la vida no existía en la muerte

Coros: guitarra1
e |---------------------------------------------------------------------|
B |---------------------------------------------------------------------|
G |--2---2-2-------------4-x444--6-x666--8-9--9-9-11-9-7-9--------------|
D |--2---2-2-------------4-x444--6-x666--8-9--9-9-11-9-7-9--------------|
A |--0---0-0-2/4-2/4-----2-x222--4-x444--6-7--7-7-9--7-5-7--------------|
E |---------------------------------------------------------------------|
    Noo,              no quiero ser una sombra en el suelo,
Quiero verme
e |---------------------------------------------------------------------|
B |---------------------------------------------------------------------|
G |--2---2-2-------------4-x444--6-x666--8-9--9-9-11-9-7-9--------------|
D |--2---2-2-------------4-x444--6-x666--8-9--9-9-11-9-7-9--------------|
A |--0---0-0-2/4-2/4-----2-x222--4-x444--6-7--7-7-9--7-5-7--------------|
E |---------------------------------------------------------------------|
   Reflejado transparente en los espacios y los cielos,
a la orilla de tus senos Colgado como cuadro
e |-----------------------------------------------------------------|
B |-----------------------------------------------------------------|
G |--2---2-2-------------4-x444-------------------------------------|
D |--2---2-2-------------4-x444-------------------------------------|
A |--0---0-0-2/4-2/4-----2-x222-------------------------------------|
E |-----------------------------------------------------------------|
    en las paredes de tu vientre, perdido en tus pasisajes
e |------------------------------------|
B |------------------------------------|
G |------------------------------------|
D |----444------6--------7-------------|
A |----444------6--------7-------------|
E |----222------4--------5-------------|
     Ahhh    Ahhh    Ahhh


La guitarra 1 toca otra vez el intro

            E E          E  E         A  A           A A
e |-----------------------------------------------------------------|
B |-----------------------------------------------------------------|
G |---------1--1---------1--1---------2--2----------2--2------------|
D |---------2--2---------2--2---------2--2----------2--2--2/4--2----|
A |--0--2/4------0--2/4-------0--2/4--------0--2/4----------------4-|
E |-----------------------------------------------------------------|

E                                                         A
Crei cuando dijeron que otros mundos no vivian y todo era lo que
ves
E                                            A
Pense que tu sonrisa era inagotable como el agua , hasta que
casi se fue
E
Queria siempre mas, siempre lo siguiente y lo que
A
tuve lo olvide
E                                                   A
Crei que lo que amaba era en si tu carne, pero descrubi tu ser

COROS:
e |----------------------------------------------------------------|
B |----------------------------------------------------------------|
G |--2---2-2-------------4-x444--6-x666--8-9--9-9-11-9-7-9---------|
D |--2---2-2-------------4-x444--6-x666--8-9--9-9-11-9-7-9---------|
A |--0---0-0-2/4-2/4-----2-x222--4-x444--6-7--7-7-9--7-5-7---------|
E |----------------------------------------------------------------|
    Noo,              no quiero ser una sombra en el suelo,
Quiero verme
e |----------------------------------------------------------------|
B |----------------------------------------------------------------|
G |--2---2-2-------------4-x444--6-x666--8-9--9-9-11-9-7-9---------|
D |--2---2-2-------------4-x444--6-x666--8-9--9-9-11-9-7-9---------|
A |--0---0-0-2/4-2/4-----2-x222--4-x444--6-7--7-7-9--7-5-7---------|
E |----------------------------------------------------------------|
   Reflejado transparente en los espacios y los cielos,
a la orilla de tus senos Colgado como cuadro
e |-----------------------------------------------------------------|
B |-----------------------------------------------------------------|
G |--2---2-2-------------4-x444444----------------------------------|
D |--2---2-2-------------4-x444444----------------------------------|
A |--0---0-0-2/4-2/4-----2-x222222----------------------------------|
E |-----------------------------------------------------------------|
    en las paredes de tu vientre, vagando en tus rodillas

e |------------------------------------|
B |------------------------------------|
G |------------------------------------|
D |----444------6--------7-------------|
A |----444------6--------7-------------|
E |----222------4--------5-------------|
     Ahhh    Ahhh    Ahhh
e |------------------------------------|
B |------------------------------------|
G |------------------------------------|
D |----444------6--------7-------------|
A |----444------6--------7-------------|
E |----222------4--------5-------------|
     Ahhh    Ahhh    Ahhh


Solo:esto lo hace la guitarra 2 y la guitarra 1 hace el intro


e |---------7--------------------------------------|
B |--9-9--9----9--10-5*------10--9--7-10-9-5-7--9--|
G |------------------------------------------------|
D |------------------------------------------------|
A |------------------------------------------------|
E |------------------------------------------------|

|---- Se repite 2 veces---------------|

|-----7------------9/10---12--------------|
|--9-----9-10-5*--------------------------|
|-----------------------------------------|
|-----------------------------------------|
|-----------------------------------------|
|-----------------------------------------|

COROS:
e |-------------------------------------------------------------|
B |-------------------------------------------------------------|
G |--2---2-2-------------4-x444--6-x666--8-9--9-9-11-9-7-9------|
D |--2---2-2-------------4-x444--6-x666--8-9--9-9-11-9-7-9------|
A |--0---0-0-2/4-2/4-----2-x222--4-x444--6-7--7-7-9--7-5-7------|
E |-------------------------------------------------------------|
    Noo,              no quiero ser una sombra en el suelo,
Quiero verme
e |-------------------------------------------------------------|
B |-------------------------------------------------------------|
G |--2---2-2-------------4-x444--6-x666--8-9--9-9-11-9-7-9------|
D |--2---2-2-------------4-x444--6-x666--8-9--9-9-11-9-7-9------|
A |--0---0-0-2/4-2/4-----2-x222--4-x444--6-7--7-7-9--7-5-7------|
E |-------------------------------------------------------------|
   Reflejado transparente en los espacios y los cielos,
a la orilla de tus senos Colgado como cuadro
e |-------------------------------------------------------------|
B |-------------------------------------------------------------|
G |--2---2-2-------------4-x444--6-x666--8-9--9-9-11-9-7-9------|
D |--2---2-2-------------4-x444--6-x666--8-9--9-9-11-9-7-9------|
A |--0---0-0-2/4-2/4-----2-x222--4-x444--6-7--7-7-9--7-5-7------|
E |-------------------------------------------------------------|
    en las paredes de tu vientre, vagando en tus rodillas
 creciendo por tus labios

e |-------------------------------------------------------------|
B |-------------------------------------------------------------|
G |--2---2-2-------------4-x444--6-x666--8-9--9-9-11-9-7-9------|
D |--2---2-2-------------4-x444--6-x666--8-9--9-9-11-9-7-9------|
A |--0---0-0-2/4-2/4-----2-x222--4-x444--6-7--7-7-9--7-5-7------|
E |-------------------------------------------------------------|

       ESTE RIFF SE REPITE HASTA EL AHHHHHH AHHHH AHHHHH

            
            
Suggest correction
Creating personal tab
Creating personal tab
You can edit any tab online and save it as your Personal.

You can edit, replace or remove any tab part or add personal notes – all changes will be seen only by you.

Personal tabs can be accessed anytime from any device, even offline.
Learn more »
Give kudos to tab author, rate the tab!
1 2 3 4 5
comments
print report bad tab
guest
Wanna post a correction for this tab? Suggest correction