Oops, an error
Loading. Please wait.

Zenit chords

version 2
version 2

Whole song

87 views 1 this week
no commentswrite comment
1 2 3 4 5
3 more votes to show rating
add to favorites
×
Save as Personal and add changes to this tab that will be seen only by you. Learn more ›
×
You can save this tab as Personal to edit and correct it or add notes. All changes will be seen only by you. Learn more »
launch autoscroll
font size
0
reset
transpose
0
reset
display chords
guitar tuner
edit
Autoscroll
slow
fast
+/-
esc
set tempo
stop
Strumming
There is no strumming pattern for this song yet. and get +5 IQ
La canción sale mas chida con dos guitarras, una que haga  el intro y los solos y otra que lleve el acompañamiento 
La guitarra 1 toca el intro en las estrofas y en el coro puede acompañar a la 2da guitarra


 INTRO: únicamente GUITARRA 1. Se repite al llegar al final 

                    E E                 E  E                      A  A                    A A
e |-------------------------------------------------------------------------------------------|
B |-------------------------------------------------------------------------------------------|
G |------------1--1-------------1--1----------------2--2---------------2--2-------------------|
D |------------2--2-------------2--2----------------2--2---------------2--2----2/4--2---------|
A |--0--2/4-----------0--2/4--------------0--2/4-------------0--2/4---------------------4-----|
E |-------------------------------------------------------------------------------------------|

 Despues de dos veces entra la vos y el acompañamiento de la segunda guitarra, pero la guitarra 1 no deja de tocar el intro hasta el coro.


E                                                         A
Crei cuando dijeron que la Luna se dormia cuando salía el Sol 
E                                                             A
Creí cuando dijeron que el diablo se escondia husmeando en las esquinas de la habitacion
E                                                                  A
Crei ademas porque dijeron las maestras miopes que el Sol no se veia de frente 
E                                                        A
Y yo me crei cuando dijeron que la vida no existia en la muerte
 

CORO:
A       B                  C#m
Noo , no quiero ser una sombra en el suelo
   E                   A                                B                                   C#m
Quiero verme reflejado transparente en los espacios y los cielos, a la orilla de tus senos
E                                              A                             B
Colgado como cuadro en las paredes de tu vientre, perdido en tus pasisajes 
F#m      G#m       A
Ahhh    Ahhh    Ahhh


E                                                         A
Crei cuando dijeron que otros mundos no vivian y todo era lo que ves
E                                            A
Pense que tu sonrisa era inagotable como el agua , hasta que casi se fue
E                                                    A
Queria siempre mas, siempre lo siguiente y lo que tuve lo olvide
E                                                   A                                                 A
Crei que lo que amaba era en si tu carne, pero descrubi tu ser


CORO:
B                        C#m
No quiero ser una sombra en el suelo
   E                      A                                B                                   C#m
Quiero verme reflejado transparente en los espacios y los cielos a la orilla de tus senos
E                                              A                              B
Colgado como cuadro en las paredes de tu vientre,  vagando en tus rodillas 
F#m      G#m       A
Ahhh    Ahhh    Ahhh
F#m      G#m       A
Ahhh    Ahhh    AhhhAhhhAhhuuh


SOLO: Unicamente una guitarra la otra hace el acompañamiento en E y A como en las estrofas

Riff 1
Se repite 3 veces, se acentúa en *
 Los acordes E y A se intercalan al inicio
E  |------------------------------------|
B |--9--9--9--*9--10--12------------|
G |------------------------------------| 
D |------------------------------------|
A |------------------------------------|
E |------------------------------------ |

y en la 4ta y ultima va así:
E  |------------------------------------|
B |--9--9--*9-------------------------|
G |------------------------------------| 
D |------------------------------------|
A |------------------------------------|
E |------------------------------------ |

Riff 2 
      E                      A                                                            E                    A          E           A
e |--------------------------------------------------------|---------------------------------9/*12------|
B |------7--*9--9--12--9--10--9-----10--9------10--9--|------7--*9--9--12--9--*10----------------|
G |--/9-----------------------------9----------9--------- -|--/9----------------------------------------|
D |--------------------------------------------------------|--------------------------------------------|
A |--------------------------------------------------------|--------------------------------------------|
E |--------------------------------------------------------|---------------------------------------------|

          E                                  A
E  |---------------------------*12------------|
B |--*12--9--12--9--*10--*14----------- |
G |---------------------------*14------------|
D |---------------------------*14------------|
A |---------------------------*12------------|
E |------------------------------------------|

CORO:

A       B                  C#m
Noo , no quiero ser una sombra en el suelo
   E                      A                                B                                   C#m
Quiero verme reflejado transparente en los espacios y los cielos a la orilla de tus senos
E                                              A                              B                               C#m                                
Colgado como cuadro en las paredes de tu vientre vagando en tus rodillas, creciendo por tus labios
E                              A            B                                   C#m
Llegar al Cenit pasional, Y estallar el universo en sangre y energía
E                           A        B                                        C#m
Soy el Cenit pasional, estallando entre tus piernas, creciendo por tus labios 
E                                                 A              B           C#m
Llegando al punto maximo de comunión, de comunion, yeeeh!,  
E               A            B          C#m
yeeeeh!, yeeeah, yeejeeah, yeeeah, 
E                  A               B               C#m
yejejeah, yejejeaah!, yejejeahaauuh, uuhjuuh 
E           A        B   
uuhh!, uuhh!  Est      allando entre tus piernas.
F#m      G#m       A
Ahhh    Ahhh    Ahhh

E                 A
oohh!     oheehah
E              A
yehjeieh yeehjeah
E            A
yeihjei  eeehhehe
E           A
yeeah    uhhh


Acordes: 

E: 000220
A: 022200
B: 24442X
C#m: 45664X
F#m: 222442
G#m: 444664

****************************************************** 

Dedicado a mi estrella y mi cosmos: sara (9/15/84) hada
de luz continua e infinita, en intervalos de tiempo 
desconocidos, pero no imposibles, desde tu dimensión:
Sigue siendo esa eterna flama de amor incondicional
que eres para mi. Te amo no lo olvides. atte: tu aliado, tu novio y tu fan: cenit

            
            
Suggest correction
Creating personal tab
Creating personal tab
You can edit any tab online and save it as your Personal.

You can edit, replace or remove any tab part or add personal notes – all changes will be seen only by you.

Personal tabs can be accessed anytime from any device, even offline.
Learn more »
Give kudos to tab author, rate the tab!
1 2 3 4 5
comments
print report bad tab
guest
Wanna post a correction for this tab? Suggest correction