Oops, an error
Loading. Please wait.

Zenit tab

version 2
version 2

Whole song

59 views 1 this week
no commentswrite comment
1 2 3 4 5
3 more votes to show rating
add to favorites
×
Save as Personal and add changes to this tab that will be seen only by you. Learn more ›
×
You can save this tab as Personal to edit and correct it or add notes. All changes will be seen only by you. Learn more »
launch autoscroll
font size
0
reset
how to read this tab
guitar tuner
edit
Autoscroll
slow
fast
+/-
esc
set tempo
stop
Intro
          E                          A
e|---------------------------------|-------------------------|
B|---------------------------------|-------------------------|
G|--------1--1---------1--1--------|-2--2---------2----------|
D|--------2--2---------2--2--------|-2--2---------2--2h4-2---|  x2
A|-2-3-4--------2-3-4--------2-3-4-|-------2-3-4-----------4-|
E|---------------------------------|-------------------------|

Verso
Creí cuando dijeron que la luna............
          E                          A
e|---------------------------------|-------------------------|
B|---------------------------------|-------------------------|
G|--------1--1---------1--1--------|-2--2---------2----------|
D|--------2--2---------2--2--------|-2--2---------2--2h4-2---|  x3
A|-2-3-4--------2-3-4--------2-3-4-|-------2-3-4-----------4-|
E|---------------------------------|-------------------------|

          E                          A
e|---------------------------------|---------------------------|
B|---------------------------------|---------------------------|
G|--------1--1---------1--1--------|-2--2---------2------------|
D|--------2--2---------2--2--------|-2--2---------2--2h4-2-----|
A|-2-3-4--------2-3-4--------2-3-4-|-------2-3-4-----------4-2-|
E|---------------------------------|---------------------------|

Coro
Noooo, no quiero ser una sombra....
   A5        B5/A5/C#5  B5           C#5     D#5    E5    F#5 E5 D#5/E5
e|--------------------|------------|--------------|--------------------|
B|--------------------|------------|--------------|--------------------|
G|--------------------|------------|----------8---|-9---9/11--9--8/9---|
D|-7---7-----7/9/7/11-|-9---9------|-11--11---8---|-9---9/11--9--8/9---| x2
A|-7---7-----7/9/7/11-|-9---9------|-11--11---6---|-7---7/9---7--6/7---|
E|-5---5-----5/7/5/9--|-7---7--7-8-|-9---9--------|--------------------|

   A5        B5/A5/C#5  B5
e|--------------------|------------|
B|--------------------|------------|
G|--------------------|------------|
D|-7---7-----7/9/7/11-|-9---9------|
A|-7---7-----7/9/7/11-|-9---9------|
E|-5---5-----5/7/5/9--|-7---7--7-8-|

Verso 2
Creí cuando dijeron que otros mundos.............
   E             A             E             A
e|-0-0-0-0-0-0-|-0-0-0-0-0-0-|-0-0-0-0-0-0-|-0-0-0-0-0-0-|
B|-0-0-0-0-0-0-|-2-2-2-2-2-2-|-0-0-0-0-0-0-|-2-2-2-2-2-2-|
G|-1-1-1-1-1-1-|-2-2-2-2-2-2-|-1-1-1-1-1-1-|-2-2-2-2-2-2-|  x4
D|-2-2-2-2-2-2-|-2-2-2-2-2-2-|-2-2-2-2-2-2-|-2-2-2-2-2-2-|
A|-2-2-2-2-2-2-|-0-0-0-0-0-0-|-2-2-2-2-2-2-|-0-0-0-0-0-0-|
E|-0-0-0-0-0-0-|-------------|-0-0-0-0-0-0-|-------------|

Coro
Noooo, no quiero ser una sombra....
   A5        B5/A5/C#5  B5           C#5     D#5    E5    F#5 E5 D#5/E5
e|--------------------|------------|--------------|--------------------|
B|--------------------|------------|--------------|--------------------|
G|--------------------|------------|----------8---|-9---9/11--9--8/9---|
D|-7---7-----7/9/7/11-|-9---9------|-11--11---8---|-9---9/11--9--8/9---| x2
A|-7---7-----7/9/7/11-|-9---9------|-11--11---6---|-7---7/9---7--6/7---|
E|-5---5-----5/7/5/9--|-7---7--7-8-|-9---9--------|--------------------|

   A5        B5/A5/C#5  B5
e|--------------------|------------|
B|--------------------|------------|
G|--------------------|------------|
D|-7---7-----7/9/7/11-|-9---9------|
A|-7---7-----7/9/7/11-|-9---9------|
E|-5---5-----5/7/5/9--|-7---7--7-8-|

Bridge
(Durante esta parte, otra guitarra va tocando el Intro)

   E                A               E                 A
e|----------------|----------------|-----------------|-------------------|
B|-9-9-9--9-10-12-|-9-9-9--9-12-10-|-9-9-9---9-10-12-|-9-9-9--9-12-10----|
G|----------------|----------------|-----------------|----------------11-|
D|----------------|----------------|-----------------|-------------------|
A|----------------|----------------|-----------------|-------------------|
E|----------------|----------------|-----------------|-------------------|

   E                A                  E                A
e|----------------|----------------|-----------------|-------------------|
B|-9--------------|-----9-12-----9-|-10--9-----------|-10-10---10-9------|
G|----------------|----------------|-------9---------|-------9------9-11-|
D|----------------|----------------|-----------------|-------------------|
A|----------------|----------------|-----------------|-------------------|
E|----------------|----------------|-----------------|-------------------|
 |
 |
e|----------------|----------------|-----------------|-------------------|
B|-9-9-9--9-10-12-|-9-9-9--9-12-10-|-9-9-9---9-10-12-|-9-9-9----9-12-10--|
G|----------------|----------------|-----------------|-------------------|
D|----------------|----------------|-----------------|-------------------|
A|----------------|----------------|-----------------|-------------------|
E|----------------|----------------|-----------------|-------------------|

   E                 A                 E                 A
e|-----------------|-----------------|-----------------|------9h11h12----|
B|-9---------------|------9-12-----9-|-10--------------|-----------------|
G|-----------------|-----------------|-----------------|-----------------|
D|-----------------|-----------------|-----------------|-----------------|
A|-----------------|-----------------|-----------------|-----------------|
E|-----------------|-----------------|-----------------|-----------------|
 |
 |
e|-----------------|-----------------|-----------------|-----------------|
B|-9-9-9---9-10-12-|-9-9-9---9-12-10-|-9-9-9---9-10-12-|-9-9-9---9-12-10-|
G|-----------------|-----------------|-----------------|-----------------|
D|-----------------|-----------------|-----------------|-----------------|
A|-----------------|-----------------|-----------------|-----------------|
E|-----------------|-----------------|-----------------|-----------------|
   E                 A                  E                A
e|-----------------|-----------------|-----------------|------9h11h12/14-|
B|-9---------------|------9-12-----9-|-10--------------|-----------------|
G|-----------------|-----------------|-----------------|-----------------|
D|-----------------|-----------------|-----------------|-----------------|
A|-----------------|-----------------|-----------------|-----------------|
E|-----------------|-----------------|-----------------|-----------------|
 |
 |
e|-----------------|-----------------|-----------------|-----------------|
B|-9-9-9---9-10-12-|-9-9-9---9-12-10-|-9-9-9---9-10-12-|-9-9-9---9-12-10-|
G|-----------------|-----------------|-----------------|-----------------|
D|-----------------|-----------------|-----------------|-----------------|
A|-----------------|-----------------|-----------------|-----------------|
E|-----------------|-----------------|-----------------|-----------------|

Coro
Noooo, no quiero ser una sombra....

   A5        B5/A5/C#5  B5           C#5     D#5    E5    F#5 E5 D#5/E5
e|--------------------|------------|--------------|--------------------|
B|--------------------|------------|--------------|--------------------|
G|--------------------|------------|----------8---|-9---9/11--9--8/9---|
D|-7---7-----7/9/7/11-|-9---9------|-11--11---8---|-9---9/11--9--8/9---| x8
A|-7---7-----7/9/7/11-|-9---9------|-11--11---6---|-7---7/9---7--6/7---|
E|-5---5-----5/7/5/9--|-7---7--7-8-|-9---9--------|--------------------|

   A5        B5/A5/C#5
e|--------------------|
B|--------------------|
G|--------------------|
D|-7---7-----7/9/7/11-|
A|-7---7-----7/9/7/11-|
E|-5---5-----5/7/5/9--|

Outro

     E                          A
e|----------------------------|-------------------------------|
B|----------------------------|-------------------------------|
G|---1--1---------1--1--------|-2--2---------2----------------|
D|---2--2---------2--2--------|-2--2---------2--2h4-2---------|
A|---------2-3-4--------2-3-4-|-------2-3-4-----------4-2-3-4-|
E|----------------------------|-------------------------------|

repetir hasta el final

            
            
Suggest correction
Creating personal tab
Creating personal tab
You can edit any tab online and save it as your Personal.

You can edit, replace or remove any tab part or add personal notes – all changes will be seen only by you.

Personal tabs can be accessed anytime from any device, even offline.
Learn more »
Give kudos to tab author, rate the tab!
1 2 3 4 5
comments
print report bad tab
guest
Wanna post a correction for this tab? Suggest correction