Oops, an error
Loading. Please wait.

Plan B Anhelo De Satisfacción tab

version 1
version 1

Whole song

Interactive

214 views 1 this week
no commentswrite comment
1 2 3 4 5
3 more votes to show rating
add to favorites
×
Save as Personal and add changes to this tab that will be seen only by you. Learn more ›
×
You can save this tab as Personal to edit and correct it or add notes. All changes will be seen only by you. Learn more »
launch autoscroll
font size
0
reset
how to read this tab
guitar tuner
edit
Autoscroll
slow
fast
+/-
esc
set tempo
stop
Recordar que este tema esta tocado con la guitarra
afinada medio tono abajo
si vas a tocar arriba del tema no va a sonar
a menos que lo subas o bajes la guitarra

*   B Bending/estirada
~   Volver despues de stirar
()  Vibrato
/   Ligado
/p  Pull of
/h  Hammer on
(m) Nota Muteada o Tapada (palm mute)
[]  Armonico

Intro

e-----------------------------
b------3-3-3-3-3-3-3-3-3-3----
g------2-2-2-2-2-2-2-2-4-2----   x10
D------4-4-5-5-0-0-0-0-0-0----
A-----------------------------
E-----------------------------

    C5       G            E7
e------------------3-3-------------3-3-3------3-3-3----
b------------------3-3-------------3-3-3------3-3-3----
g----------------0-----------------0-0-0------0-0-0----
D--4--5-5----0---0---------2--2-----------2-2----------  x3
A--3--3-3----2---2---------2--2-----------2-2----------
E------------3-------------0--0-----------0-0----------

    C5       G            E7
e------------------3-3-------------3-3-3-----------------
b------------------3-3-------------3-3-3-----------------
g----------------0-----------------0-0-0-----------------
D--4--5-5----0---0---------2--2------------2--5--7--9-9--
A--3--3-3----2---2---------2--2------------2--5--7--9-9--
E------------3-------------0--0--------------------------

   C5       G       E7  F#m
e---------------------------------------------
b--------------3------------------------------
g--------------3------------------------------
D--4--5-5---0-------2---4---------------------
A--3--3-3---2-------2---4---------------------
E-----------3-------0---2---------------------

C5          G       E7
e-------------------------------------------------
b--------------3----------------------------------
g--------------3----------------------------------
D--4--5-5---0-------2-2-2---2-2-2-----------------
A--3--3-3---2-------2-2-2---2-2-2-----------------
E-----------3-------0-0-0---0-0-0-----------------

C5           G             E7
e------------------3-3-------------3-3-3-------14b15~14b(15)-
b------------------3-3-------------3-3-3---------------------
g----------------0-----------------0-0-0---------------------
D--4--5-5----0---0---------2--2-----------2--2---------------
A--3--3-3----2---2---------2--2-----------2--2---------------
E------------3-------------0--0-----------0--0---------------

e------------------3-3-------------3-3-3---------------------
b------------------3-3-------------3-3-3---------------------
g----------------0-----------------0-0-0---------4b5~5-4b5---
D--4--5-5----0---0---------2--2------------2--2--------------
A--3--3-3----2---2---------2--2------------2--2--------------
E------------3-------------0--0------------0--0--------------

    C5       G             E7
e------------------3-3-------------3-3-3------3-3-3----
b------------------3-3-------------3-3-3------3-3-3----
g----------------0-----------------0-0-0------0-0-0----
D--4--5-5----0---0---------2--2-----------2-2----------  x2
A--3--3-3----2---2---------2--2-----------2-2----------
E------------3-------------0--0-----------0-0----------

    E7  D5  B5  A5        B5           C5
e-----------------------------------------------------------
b-----------------------------------------------------------
g--------------------------------------4--5--7---4--5--7----
D---2---0---4---2----(5)--4--(5)----------------------------
A---2---0---2---0---------2------------2--3--5---2--3--5----
E-----------------------------------------------------------

    E7  D5  B5  A5        B5           C5
e-----------------------------------------------------------
b-----------------------------------------------------------
g--------------------------------------11b12~11/11b(12)-----
D---2---0---4---2----(5)--4--(5)----------------------------
A---2---0---2---0---------2---------------------------------
E-----------------------------------------------------------

   A5         B5         C5
e---------------------------------------------
b---------------------------------------------
g---------------------------------------------
D--------2-2--------4-4--------5-5------------
A--0-0-0-0-0--2-2-2-2-2--3-3-3-3-3------------
E---------------------------------------------

   A5         B5          E5
e---------------------------------------------
b---------------------------------------------
g---------------------------------------------
D--------2-2--------4-4-----------------------
A--0-0-0-0-0--2-2-2-2-2---2-2-2---2-2-2-------
E-------------------------0-0-0---0-0-0-------

    C5            G          E5
e---------------------------------------------
b---------------------------------------------
g---------------------------------------------
D---4--5--5------------------2----------------
A---3--3--5-------/-1-(m)----2----------------
E---------3-------/-1-(m)----0----------------

    C5       G            E7
e------------------3-3-------------3-3-3-----------------
b------------------3-3-------------3-3-3-----------------
g----------------0-----------------0-0-0-----------------
D--4--5-5----0---0---------2--2------------2--5--7--9-9--
A--3--3-3----2---2---------2--2------------2--5--7--9-9--
E------------3-------------0--0--------------------------

   C5        G             E7
e------------------3-3-------------3-3-3------3-3-3----
b------------------3-3-------------3-3-3------3-3-3----
g----------------0-----------------0-0-0------0-0-0----
D--4--5-5----0---0---------2--2-----------2-2----------
A--3--3-3----2---2---------2--2-----------2-2----------
E------------3-------------0--0-----------0-0----------

    C5       G     B5       E7
e-------------------------------------
b-------------------------------------
g-------------------------------------
D--4--5-5----5-----4-4-4----2--2------
A--3--3-3----5-----2-2-2----2--2------
E------------3--------------0--0------

e---------------------------------------------
b---------------------------------------------
g---------------------------------------------
D---------------------------------------------
A-----2-3---3-5-------------------------------
E---------------------------------------------

e-----------------------------
b------3-3-3-3-3-3-3-3-3-3----
g------2-2-2-2-2-2-2-2-4-2----   x6
D------4-4-5-5-0-0-0-0-0-0----
A-----------------------------
E-----------------------------

e---------------------------------------------
b---------------------------------------------
g---------------------------------------------
D---------------------------------------------
A----3--3-3--3/5-5/3-3/9-9/(10)-12/(14)-------
E---------------------------------------------


e------------------------------------------------------------
b---------15/p13/p12-15/p13/p12-----12-----------------------
g--------------------------------14----12/h14/p12-11/p12ih11-
D------------------------------------------------------------
A------------------------------------------------------------
E------------------------------------------------------------

e----------------------------------------------
b----------------------------12/p13/h12/5------
g----11-----------11/p12/p14--------------[5]--
D-14----14-12/p14------------------------------
A----------------------------------------------
E----------------------------------------------

e---------------------------------------3/5/7--
b-----12/5-------12/5---------12/5-------------
g-----------[5]--------[5]---------[5]---------
D----------------------------------------------
A----------------------------------------------
E----------------------------------------------

e-----------------------------
b------3-3-3-3-3-3-3-3-3-3----
g------2-2-2-2-2-2-2-2-4-2---- x2
D------4-4-5-5-0-0-0-0-0-0----
A-----------------------------
E-----------------------------

e-----------------------------
b---[5]-----------------------
g---[5]-----------------------
D-----------------------------
A-----------------------------
E-----------------------------

e-----------------------------
b------3-3-3-3-3-3-3-3-3-3----
g------2-2-2-2-2-2-2-2-4-2---- x2
D------4-4-5-5-0-0-0-0-0-0----
A-----------------------------
E-----------------------------

e-----------------------------
b---[5]-----------------------
g---[5]-----------------------
D-----------------------------
A-----------------------------
E-----------------------------

    C5       G             E7
e------------------3-3-------------3-3-3------3-3-3----
b------------------3-3-------------3-3-3------3-3-3----
g----------------0-----------------0-0-0------0-0-0----
D--4--5-5----0---0---------2--2-----------2-2----------
A--3--3-3----2---2---------2--2-----------2-2----------
E------------3-------------0--0-----------0-0----------

e--------------------------------------------
b--------------------------------------------
g--------------------------------------------
D---4--4--4----------------------------------
A---2--2--2-2--------------------------------
E-----------0--------------------------------

Acordes
  E7  E5  C5  G  A5 B5
e--3----------3--------------------------------
b--3----------3--------------------------------
g--0------5---0--2--4--------------------------
D--2--2---5---0--2--4--------------------------
A--2--2---3---2--0--2--------------------------
E--0--0-------3--------------------------------

Probalo, si hay errores las correctiones son bienvenidas
Saludos

            
            
Suggest correction
Creating personal tab
Creating personal tab
You can edit any tab online and save it as your Personal.

You can edit, replace or remove any tab part or add personal notes – all changes will be seen only by you.

Personal tabs can be accessed anytime from any device, even offline.
Learn more »
Give kudos to tab author, rate the tab!
1 2 3 4 5
comments
print report bad tab
guest
Wanna post a correction for this tab? Suggest correction