Oops, an error
Loading. Please wait.

Héroes Anónimos bass

version 1
version 1

Whole song

46 views 1 this week
no commentswrite comment
1 2 3 4 5
3 more votes to show rating
add to favorites
×
Save as Personal and add changes to this tab that will be seen only by you. Learn more ›
×
You can save this tab as Personal to edit and correct it or add notes. All changes will be seen only by you. Learn more »
launch autoscroll
font size
0
reset
guitar tuner
edit
Autoscroll
slow
fast
+/-
esc
set tempo
stop
HEROES ANONIMOS - BAJO
Por: Nicolas "Quino" Cruz (Y ayuda de Guido Laurito)


INTRO:
G:---------------------------------------------------------------------------|
D:---------------------------------------------------------------------------|
A:02222222--022222222--02222222222-2/14--14--14--14/0------------------------|
E:---------------------------------------------------------------------------|


BASE:
"Estamos atrapados en la misma red, viajando por un laberinto":
G:---------------------------------------------------------------------------|
D:---------------------------------------------------------------------------|
A:----4--4--4--4--4--4--4----------------------------------------------------|
E:--------------------------4--4--4--4--4--4--4--4-------1--1--1--1--1--1----|
(Repetir las veces de "Estamos sosteniendo una pared" y "Ceferino no me escucha mas").


"Todos somos heroes anonimos, guerreros en este lugar...":
G:------------------------------------------------------------|
D:------------------------------------------------------------|
A:--4--4--4--4--4--4--4--4--4--4------------------------------|
E:--------------------------------3-----5------4---------7----|
(Repetir en la parte de "Peleando con el corazon, combatiendo tanta soledad").


En el solo de Fer toca la base:
G:---------------------------------------------------------------------------|
D:---------------------------------------------------------------------------|
A:----4--4--4--4--4--4--4----------------------------------------------------|
E:--------------------------4--4--4--4--4--4--4--4-------1--1--1--1--1--1----|


FINAL:
G:--------------13----------------------|
D:------14--------------14--------------|
A:--12------12------12------12----------| X3
E:--------------------------------------|


Y cuando cambia es asi:                                 
G:------------15------13-------13/0----|
D:----14-----------------------14/0----|
A:-12-----12------12------12---12/0----|
E:-------------------------------------|

______________________________________________________________________________________
(Aclaracion) /= SLIDE
Si quieren hacerme algun comentario, o alguna correcion, mi numero de icq es: 94633127
Un saludo a todos/as los/as fanaticos/as de Catupecu.
Y especialmente a mi amigo Guido (El de los tabs de guitarra).
Suggest correction
Creating personal tab
Creating personal tab
You can edit any tab online and save it as your Personal.

You can edit, replace or remove any tab part or add personal notes – all changes will be seen only by you.

Personal tabs can be accessed anytime from any device, even offline.
Learn more »
Give kudos to tab author, rate the tab!
1 2 3 4 5
comments
print report bad tab
guest
Wanna post a correction for this tab? Suggest correction