Oops, an error
Loading. Please wait.

Sillas Vacías tab

11 views 1 this week
no commentswrite comment
1 2 3 4 5
3 more votes to show rating
add to favorites
×
Save as Personal and add changes to this tab that will be seen only by you. Learn more ›
×
You can save this tab as Personal to edit and correct it or add notes. All changes will be seen only by you. Learn more »
launch autoscroll
font size
0
reset
how to read this tab
guitar tuner
edit
Autoscroll
slow
fast
+/-
esc
set tempo
stop
No estoy seguro si la letra está 100% correcta, pero los acordes si
Disfruten! :)

Intro:
La intro es Sol con algunas variaciones. Yo las hago así:
SOL  SOL1  SOL2
--3- --2-- -0--
--0- --0-- -0--
--0- --0-- -0--
--0- --0-- -0--
--2- --2-- -2--
--3- --3-- -3--
Escuchen el tema y se dan cuenta de como es el rasgido y los tiempos

SOL-SOL1-SOL2-SOL1

SOL SOL1  SOL2     SOL1       SIm
Son sillas   las vacias del salon
DO         LAm
Nadie la ha visto más
DO         RE
Todos quieren reir
SIm      MIm         LAm
Todos quisieran pero no
RE                      MIm
Nadie la ha visto nunca más
DO                    SOL
Estará buscando ese lugar
SIm                    MIm
Estará tratando de olvidar
DO                     SOL
Sillas que vacías le dirán que no
SIm                  MIm
Ropa de salida que nadie va a usar
DO                           SOL
Listas para siempre en un rincón
SOL               SOL1           SIm
Mil veces la he tratado de encontrar
DO          LAm
Tal vez llegó al fin
DO        RE
Logró no sentir más
SIm      MIm         LAm
Todos la buscan pero yo
RE                         MIm
Yo ya no la he visto nunca más
DO                    SOL
Estará buscando ese lugar
SIm                    MIm
Estará tratando de olvidar
DO                     SOL
Sillas que vacías le dirán que no
SIm               MIm
Ropa salida que nadie va a usar
DO                           SOL
Listas para siempre en un rincón

Final:

 |   MIm   |    DO   |   SOL    |    MIm
E-7/19-19/7-7/17-17/8-8/15-15/10-10/14-15-12--
B---------------------------------------------
G---------------------------------------------    Sigue
d---------------------------------------------    Abajo
a---------------------------------------------
e---------------------------------------------

 |     DO    |  SOL  |   MIm  |          DO            |Sol|
E-7/19-20-20/17-19-19/15-17-17/14-17-15-14-15-14------------
B------------------------------------------------17--17/20--
G-----------------------------------------------------------
d-----------------------------------------------------------
a-----------------------------------------------------------
e-----------------------------------------------------------

            
            
Suggest correction
Creating personal tab
Creating personal tab
You can edit any tab online and save it as your Personal.

You can edit, replace or remove any tab part or add personal notes – all changes will be seen only by you.

Personal tabs can be accessed anytime from any device, even offline.
Learn more »
Give kudos to tab author, rate the tab!
1 2 3 4 5
comments
print report bad tab
guest
Wanna post a correction for this tab? Suggest correction