Oops, an error
Loading. Please wait.

30 Días tab

26 views 1 this week
no commentswrite comment
1 2 3 4 5
3 more votes to show rating
add to favorites
×
Save as Personal and add changes to this tab that will be seen only by you. Learn more ›
×
You can save this tab as Personal to edit and correct it or add notes. All changes will be seen only by you. Learn more »
launch autoscroll
font size
0
reset
how to read this tab
guitar tuner
edit
Autoscroll
slow
fast
+/-
esc
set tempo
stop
Bueno aca esta la cancion bien hecha con el arpegio adecuado
Este tema esta dedicado a ...

Treinta dias
Centinela
Album: sangre eterna

Intro

    Am                 C                 E                    Am
E:----------0------------------0------------------------------0----
B:--------1---1--------------1---1---------------0-----0------1----
G:------2-------2----------2-------2---------1-----1----------2----
D:----2-----------2------0-----------0-----2---2-----2--------2----
A:--0------------------3-----------------2--------------------0----
E:-----------------------------------------------------------------


            Treinta dias para no olvidar

    Am                 E                 G
E:----------0------------------------------------3-------------------------
B:--------1---1----------------0-----0---------3---3-----------------------
G:------2-------2----------1-----1-----------0-------0---------0-----0-----
D:----2-----------2------2---2-----2-------------------0-----2-----0-------
A:--0------------------2-------------------2---------------3-----2-----3-2-
E:---------------------------------------3---------------------------------


            Treinta sueños dejo tras de ti

    Am                 E                 G
E:----------0------------------------------------3-------------------------
B:--------1---1----------------0-----0---------3---3-----------------------
G:------2-------2----------1-----1-----------0-------0---------0-----0-----
D:----2-----------2------2---2-----2-------------------0-----2-----0-------
A:--0------------------2-------------------2---------------3-----2-----3-2-
E:---------------------------------------3---------------------------------

            Treinta de explicarte todo lo que vi

    Am                 E                 G
E:----------0------------------------------------3-------------------------
B:--------1---1----------------0-----0---------3---3-----------------------
G:------2-------2----------1-----1-----------0-------0---------0-----0-----
D:----2-----------2------2---2-----2-------------------0-----2-----0-------
A:--0------------------2-------------------2---------------3-----2-----3-2-
E:---------------------------------------3---------------------------------

          Un destino que aun no tiene fin

    Am                 E                 G
E:----------0------------------------------------3-------------------------
B:--------1---1----------------0-----0---------3---3-----------------------
G:------2-------2----------1-----1-----------0-------0---------0-----0-----
D:----2-----------2------2---2-----2-------------------0-----2-----0-------
A:--0------------------2-------------------2---------------3-----2-----3-2-
E:---------------------------------------3---------------------------------


Esta parte es con rasgado:


Dm                 Am
Nuevos sentimientos llenos de valor

Dm                  E
Cuando cae la noche, el mar tiene su voz

F                  Am
Vuelvo a descubrir que aun me queda por vivir

F                  G               Am
Vuelvo a descubrir que aun puedo sentir


            Muere el tiempo, cega mi ilusión

    Am                 E                 G
E:----------0------------------------------------3-------------------------
B:--------1---1----------------0-----0---------3---3-----------------------
G:------2-------2----------1-----1-----------0-------0---------0-----0-----
D:----2-----------2------2---2-----2-------------------0-----2-----0-------
A:--0------------------2-------------------2---------------3-----2-----3-2-
E:---------------------------------------3---------------------------------


            Todo acaba, pronto hay que partir

    Am                 E                 G
E:----------0------------------------------------3-------------------------
B:--------1---1----------------0-----0---------3---3----------------------
G:------2-------2----------1-----1-----------0-------0---------0-----0-----
D:----2-----------2------2---2-----2-------------------0-----2-----0-------
A:--0------------------2-------------------2---------------3-----2-----3-2-
E:---------------------------------------3---------------------------------

            El momento de enfrentarse a la cruda verdad

    Am                 E                 G
E:----------0------------------------------------3-------------------------
B:--------1---1----------------0-----0---------3---3-----------------------
G:------2-------2----------1-----1-----------0-------0---------0-----0-----
D:----2-----------2------2---2-----2-------------------0-----2-----0-------
A:--0------------------2-------------------2---------------3-----2-----3-2-
E:---------------------------------------3---------------------------------

            Es la hora, ya no hay marcha atras

    Am                 E                 G
E:----------0------------------------------------3-------------------------
B:--------1---1----------------0-----0---------3---3-----------------------
G:------2-------2----------1-----1-----------0-------0---------0-----0-----
D:----2-----------2------2---2-----2-------------------0-----2-----0-------
A:--0------------------2-------------------2---------------3-----2-----3-2-
E:---------------------------------------3---------------------------------


Dm                Am
Nuevas esperanzas por las que luchar

Dm                 E
quedan los recuerdos, en mi corazon

F                 Am
Vuelvo a descubrir que aun me queda por vivir

F                  G             Am
vuelvo a descubrir, que aun puedo sentir

            
            
Suggest correction
Creating personal tab
Creating personal tab
You can edit any tab online and save it as your Personal.

You can edit, replace or remove any tab part or add personal notes – all changes will be seen only by you.

Personal tabs can be accessed anytime from any device, even offline.
Learn more »
Give kudos to tab author, rate the tab!
1 2 3 4 5
comments
print report bad tab
guest
Wanna post a correction for this tab? Suggest correction