Oops, an error
Loading. Please wait.

Mi Corazón Encantado tab

1,217 views 6 this week
no commentswrite comment
1 2 3 4 5
2 more votes to show rating
add to favorites
×
Save as Personal and add changes to this tab that will be seen only by you. Learn more ›
×
You can save this tab as Personal to edit and correct it or add notes. All changes will be seen only by you. Learn more »
launch autoscroll
font size
0
reset
how to read this tab
guitar tuner
edit
Autoscroll
slow
fast
+/-
esc
set tempo
stop
Bueno muchachos aquí les traigo una versión que para mí concierne
es buena del Opening de
Dragon Ball GT. Mi corazón encantado.


Intro:
E--------------------------------------
B--------------------------------------
G---0---0---0---0---0---0--------------
D-3---3---2---2---0---0----------------
A--------------------------------------
E--------------------------------------

E --3-3-----3-5-3--------------------------------
B -------5-6-------6-5-3----5-5-----5-6-5----------
G ------------------------------5-7-------7-5-4-2--
D -------------------------------------------------
A -------------------------------------------------
E -------------------------------------------------

E --------5-3---------------------------
B --------------3-5-6-5-3---3----1-0-1--
G --2-2-5-----5-----------5-------------
D --------------------------------------
A --------------------------------------
E --------------------------------------

Esta parte va justo después del intro:

E ----------------------------------
B ----------------------------------
G ----------------------------------
D -----6-5-3---------8-6-5----------
A ---3-------6-5-6-5-------8-6-8-7--
E ----------------------------------


Verso:

E -----------------------------------------------------
B -----------------------------------------------------
G -----------------------------------------------------
D --10-10-10-10-10-8-6-8-10-8----8-8-8-8-8-6-5-6-8-6---
A -----------------------------------------------------
E -----------------------------------------------------

E -----------------------------------
B -----------------------------------
G -----------------------------------
D ----6-6-5-3-3h5--3-3-3-3-1-3-3h5---
A --3--------------------------------
E -----------------------------------

E ----------------------------------------------------------
B ----------------------------------------------------------
G ----------------------------------------------------------
D ---5-6-8-10--10-10-10-10-10-8-6-8-10-8----8-8-10-12-12-13-
A ----------------------------------------------------------
E ----------------------------------------------------------

E ----------------------------------------------------------
B ----------------------------------------------------------
G -------------------------------------12-10-10--10-8-7-8---
D ----------------------------------------------------------
A --13-11-10-11--11-13-11-10-----10-10----------------------
E ----------------------------------------------------------


E ---------------------------------------------------------
B ---------------------------------------------------------
G ---------------------------------------------------------
D --10-12-13-13-12-13-13-12-13-13--12-13h15-13-12-10-8-8---
A ---------------------------------------------------------
E ---------------------------------------------------------

E --------------------------------------
B --------------------------------------
G --------------------------------------
D --5-8-8-5-8-8----8-10-12-13-12-13-10--
A --------------------------------------
E --------------------------------------

E --------------------------------------------
B --------------------------------------------
G -----------------12-10---10-10-8-10-10h12---
D --13-12-13-12-10----------------------------
A --------------------------------------------
E --------------------------------------------


Ending:

E ---3-3-----3-5---------------------------------
B -------5-6-----6-5-3----5-5-----5-6-5----------
G ----------------------------5-7-------7-5-4-2--
D -----------------------------------------------
A -----------------------------------------------
E -----------------------------------------------

E --------5-3---------------------------
B --------------3-5-6-5-3---5---6-5-3---
G --2-2-5-----5-----------5-------------
D --------------------------------------
A --------------------------------------
E --------------------------------------

E ---3-3-----3-5-3---------------------------------
B -------5-6-------6-5-3----5-5-----5-6-5----------
G ------------------------------5-7-------7-5-4-2--
D -------------------------------------------------
A -------------------------------------------------
E -------------------------------------------------

E --------5-3---------------------------
B --------------3-5-6-5-3---3----1-0-1--
G --2-2-5-----5-----------5-------------
D --------------------------------------
A --------------------------------------
E --------------------------------------


Espero que les haya gustado, en verdad me parece excelente esta canción,
que la disfruten :)
Gracias por ver.

            
            
Suggest correction
Creating personal tab
Creating personal tab
You can edit any tab online and save it as your Personal.

You can edit, replace or remove any tab part or add personal notes – all changes will be seen only by you.

Personal tabs can be accessed anytime from any device, even offline.
Learn more »
Give kudos to tab author, rate the tab!
1 2 3 4 5
comments
print report bad tab
guest
Wanna post a correction for this tab? Suggest correction