Oops, an error
Loading. Please wait.

Arrepentimiento tab

14 views 1 this week
no commentswrite comment
1 2 3 4 5
3 more votes to show rating
add to favorites
×
Save as Personal and add changes to this tab that will be seen only by you. Learn more ›
×
You can save this tab as Personal to edit and correct it or add notes. All changes will be seen only by you. Learn more »
launch autoscroll
font size
0
reset
how to read this tab
guitar tuner
edit
Autoscroll
slow
fast
+/-
esc
set tempo
stop
Arrepentimiento               (Cesar Rodriguez)

 DO SOL/SI FA/LA SOL LA* SI*
|-8---x-----x-----3--x---x-|
|-8---8-----6-----0--0---0-|
|-9---7-----5-----0--0---0-|
|10---5-----3-----0--0---0-|
|10---x-----x-----2--4---6-|
|-8---7-----5-----3--5---7-|

Intro

 DO                            SOL/SI
|-------8--------------8---------------0--------------0-------|
|-----8---8---8------8---8---8-------8---8---8------8---8---8-|
|---9-------9------9-------9-------7-------7------7-------7---|
|-------------------------------------------------------------|
|-------------------------------------------------------------|
|-8--------------8---------------7--------------7-------------|


 FA/LA                          SOL/SI
|-------0--------------0---------------0--------------0-------|
|-----6---6---6------6---6---6-------8---8---8------8---8---8-|
|---5-------5------5-------5-------7-------7------7-------7---|
|-------------------------------------------------------------|
|-------------------------------------------------------------|
|-5--------------5---------------7--------------7-------------|

Final de Estrofa

 SOL
|-------3-------------------------------------8-------|
|-----0---0---0------0-------0-------0------8---8---8-|
|---0-------0------0-------0-------0------9-------9---|
|-----------------------------------------------------|
|-----------------------------------------------------|
|-3--------------3-------5------7-------8-------------|

                SOL/SI          FA/LA
Me rompo el cuello mirando el cielo
                   SOL/SI    DO
Mostrándome ante ti
                      SOL/SI          FA/LA
Dejando a un lado el cansancio y sueño
                   SOL/SI
Me obligo a desistir
                    FA/LA
Ahora lo hago por ti
                    SOL/SI
Quiza dentro de un tiempo
                    FA/LA
Me vuelva a arrepentir
                SOL LA* SI* DO
Quiero pero no puedo


                   SOL/SI        FA/LA
Subido a tu terraza me planteo
                     SOL/SI
Si será una ilusión, no me lo creo
    DO                         SOL/SI
Yo miro y tu te escondes hacia dentro
  FA/LA                         SOL/SI
Cerrando aquel portón no pasa el tiempo
 FA/LA        SOL/SI
Tampoco creo que corra el tiempo
FA/LA                      SOL LA* SI* DO
Que nos robó nuestros sentimientos
DO SOL/SI FA/LA SOL/SI

DO SOL/SI FA/LA SOL/SI  DO


Quiero volar y el suelo esta lejos
Y me detiene el miedo
Alguna vez faltaron reflejos
No mas impedimentos para considerarte al menos
Buena amante
Nos lo dice un espejo
Ya nada es como antes


Mirandote a los ojos creo y veo
Que te atrapa mi forma de mirarte
Después de alguna vez subestimarte
No me conformo con besarte
Porque te quiero como tu a mi antes
Y tras mostrarte no supe apreciarte

Ahora tengo los ojos bien abiertos
Guardando por si vuelves a cruzarte
He mirado a parejas como ejemplo
Para no ser tan torpe al abrazarte
Y susurrarte ' te siento lejos'
Y hace mucho ya que me arrepiento

Para cualquier duda o aclaración por favor escriban a
r_o_l_i_n@

            
            
Suggest correction
Creating personal tab
Creating personal tab
You can edit any tab online and save it as your Personal.

You can edit, replace or remove any tab part or add personal notes – all changes will be seen only by you.

Personal tabs can be accessed anytime from any device, even offline.
Learn more »
Give kudos to tab author, rate the tab!
1 2 3 4 5
comments
print report bad tab
guest
Wanna post a correction for this tab? Suggest correction