Oops, an error
Loading. Please wait.

La Mejor Forma De Tener Las Cosas Claras tab

17 views 1 this week
no commentswrite comment
1 2 3 4 5
3 more votes to show rating
add to favorites
×
Save as Personal and add changes to this tab that will be seen only by you. Learn more ›
×
You can save this tab as Personal to edit and correct it or add notes. All changes will be seen only by you. Learn more »
launch autoscroll
font size
0
reset
how to read this tab
guitar tuner
edit
Autoscroll
slow
fast
+/-
esc
set tempo
stop
La mejor forma de tener las cosas claras  (Cesar Rodriguez)

 SOL F#/Re9 MIm SIm DO LAm
|-3----0-----0---2--0---0--|
|-0----3-----0---3--1---1--|
|-0----2-----0---4--0---2--|
|-0----0-----2---4--2---2--|
|-2----0-----2---2--3---0--|
|-3----2-----0---2--0---x--|


 SOL       F#/Re9             MIm             SIm
|------3--------------------------------------------------------
|------------------0>3>0------------0>3>0-------------2>3>2-----
|-0----------2-----------2----0-----------0---------4-------4---
|----0----0------0---------0------2---------2-----4-----------4-
|----------------------------------------------2----------------
|-3---------------------------0---------------------------------


 DO                    SOL       ^    LAm                     F#/Re9
|--------------------------------3-------------------------------------0-----
|-------0>1>0--0>1>0-------------0---------------0>1>0--0>1>0----------------
|-----0-----------------0-----0--0----------2-------------------2----2---2---
|---2----------------------0-----0--------2---2--------------------0-------0-
|-3------------------------------------0-------------------------------------
|-----------------------3---------------------------------------2------------


 SOL               F#/Re9        MIm               SIm
|---3-3-3-3-2-0----------------------3-3-3-3-2-0-----------------------
|---------------3----------3---------------------0--3------2>3>2-------
|-0-----------------2----2---2----0----------------------4-------4-----
|----------------------0-------0-----------------------4-----------4---
|---------------------------------------------------2------------------
|-3-----------------2-------------0------------------------------------


 DO                    SOL             LAm                      F#/Re9
|--------------------------------3-------------------------------------0-------
|--------0>1>0--0>1>0--------------0--------------0>1>0--0>1>0-----------------
|-----0-----------------0-----0------0--------2------------------2---2---2-----
|---2----------------------0----------------2---2------------------0-------0---
|-3--------------------------------------0-------------------------------------
|-----------------------3----------------------------------------2-------------


SOL                  Fa#/Re9
Me pierdo por temor a encontrarme,
     MIm                    SI#m
me buscan pero ya estoy tan lejos,
   DO                        SOL
me cuesta pensar que me hago viejo,
             LAm                    Fa#/Re9
y veo en mi reflejo que no soy como antes.

    SOL                   Fa#/Re9
Es cierto, con poco me conformo,
    MIm               SI#m
si mientras lo digo te desnudo.
   DO                            SOL
Tú piensa que si hoy se acaba el mundo,
                LAm                 Fa#/Re9
mañana no habrá nadie y ya no habrá futuro.

    SOL                           Fa#/Re9
¿Y quién cree en el amor si apenas queda?
     MIm                    SI#m
¿Buscarlo acaso es lo que uno debe?
   DO                           SOL
Tendré que conformarme mientras pueda
      LAm                    Fa#/Re9
con darle al corazón una y mil vueltas. (x2)

    SOL                Fa#/Re9
No tengo tiempo de explicarme
   MIm                    SI#m
ni ganas de darle muchas vueltas.
   DO                  SOL
Intento dejar la puerta abierta
                LAm                         Fa#/Re9
a todas las propuestas hasta que alguien me agarre.

    SOL                  Fa#/Re9
Los ojos a veces se me cierran
   MIm                 SI#m
cuando ando camino del trabajo,
   DO                    SOL
mis manos aun huelen a cordura
                  LAm                    Fa#/Re9
y hasta el sol me asegura que mereció la pena.

Estribillo


Espero que la transcripcion sea lo mas parecida posible a como la toca Cesar.
Para cualquier duda o aclaración enviar un mensaje a  r_o_l_i_n@

            
            
Suggest correction
Creating personal tab
Creating personal tab
You can edit any tab online and save it as your Personal.

You can edit, replace or remove any tab part or add personal notes – all changes will be seen only by you.

Personal tabs can be accessed anytime from any device, even offline.
Learn more »
Give kudos to tab author, rate the tab!
1 2 3 4 5
comments
print report bad tab
guest
Wanna post a correction for this tab? Suggest correction