Oops, an error
Loading. Please wait.

Esta Tristeza Mía tab

183 views 1 this week
no commentswrite comment
1 2 3 4 5
3 more votes to show rating
add to favorites
×
Save as Personal and add changes to this tab that will be seen only by you. Learn more ›
×
You can save this tab as Personal to edit and correct it or add notes. All changes will be seen only by you. Learn more »
launch autoscroll
font size
0
reset
how to read this tab
guitar tuner
edit
Autoscroll
slow
fast
+/-
esc
set tempo
stop
Muy buena rola y fácil de tocar,
acompáñenla con un tequilita...

1,2,3:

INTRO Guitarra 1 y 2

     G                           D               A7
E |--7-7-7--7-7-7--7-7-5--7-7-5--7-5-5--5-5-5--5-3------|
B |--8-8-8--8-8-8--8-8-7--8-8-7--8-7-7--7-7-7--7-5------|
G |--7-7-7--7-7-7--7-7-7--7-7-7--7-7-7--7-7-7--7-6------|
D |-----------------------------------------------------|
A |----------------------------------------------0------|
E |-----------------------------------------------------|


                         D
E |--7----------5--------3------2------|
B |----8---------------5--------3------|
G |-----------6-----------------2------|
D |-----------------------------0------|
A |------------------------------------|
E |------------------------------------|


D       A7      D
Y esta tristeza mía

E |--5--7--7--5--2---------------|
B |--7--8--8--7--3---------------|
G |------------------------------|

D              A7
Y este dolor profundo

E |-----0--------------------|
B |--------------------------|
G |---6---6-5-5/6---5-5/6----|


G                   D
Lo llevo aquí en el pecho
            A7
Pues me ha dejado          (en esta parte el acompañamiento
            D                 es como el INTRO)
Solo en el mundo


D  A7          D
Ya  ni llorar es bueno
                A7
Cuando no hay esperanza
G               D
Ya ni el vino mitiga
             A7               D       E7
Las penas amargas que a mi me pasan

E7                       A
Yo no sé que será de mi vida
       E7                    A
Que de mi no se acuerda ni dios

E |--/5--9--7--6--5-------|
B |-----------------------|
G |-----------------------|


G                  D
Ay!, pobres de mi ojos
         A7
Cómo han llorado
            D
Por su traición


INTRO Guitarra 1 y 2


E7                       A
Yo no sé que será de mi vida
       E7                    A
Que de mi no se acuerda ni dios

G                  D
Ay!, pobres de mi ojos
         A7
Cómo han llorado
            D      A7  D
Por su traición

            
            
Suggest correction
Creating personal tab
Creating personal tab
You can edit any tab online and save it as your Personal.

You can edit, replace or remove any tab part or add personal notes – all changes will be seen only by you.

Personal tabs can be accessed anytime from any device, even offline.
Learn more »
Give kudos to tab author, rate the tab!
1 2 3 4 5
comments
print report bad tab
guest
Wanna post a correction for this tab? Suggest correction