Oops, an error
Loading. Please wait.

No Volveré tab

647 views 6 this week
no commentswrite comment
1 2 3 4 5
3 more votes to show rating
add to favorites
×
Save as Personal and add changes to this tab that will be seen only by you. Learn more ›
×
You can save this tab as Personal to edit and correct it or add notes. All changes will be seen only by you. Learn more »
launch autoscroll
font size
0
reset
how to read this tab
guitar tuner
edit
Autoscroll
slow
fast
+/-
esc
set tempo
stop
Punteo inicial

e|-----13-----------------13-12--12/15v-|
B|---15----15----------15---------------|
G|--15--------15----15------------------|
D|-15------------15---------------------|           1
A|--------------------------------------|
E|--------------------------------------|

e|-13-----------------13-12--13-|
B|-----13----------13-----------|
G|--------14----14------------- |                   2
D|-----------15-----------------|
A|------------------------------|
E|------------------------------|

e|-15-13-12-13-12-10-12-13-12-10-8-7-8-|----------13-12-11v--|
B|-------------------------------------|---10-13-------------|
G|-------------------------------------|-10------------------|  3
D|-------------------------------------|---------------------|
A|-------------------------------------|---------------------|
E|-------------------------------------|---------------------|

Se repite la parte 1 y 2,  para terminar se toca lo siguiente (4):

e|-15-13-12-13-12-10-12-13-12-10-8-------|
B|---------------------------------11-10-|
G|---------------------------------------|       4
D|---------------------------------------|
A|---------------------------------------|
E|---------------------------------------|

*Pongan atención a los tiempos en la canción para darle el mismo
 feeling.

*Esta introducción se repite de igual manera a mitad de la canción.

*A continuación les dejo los acordes, los bajeos son muy sencillos
   y los fills que lleva durante toda la canción no son complicados
   y básicamente son las mismas notas.


Ritmo de vals
                             F
Cuando lejos te encuentres de mí
                     C
Cuando quieras que yo este con-tigo
      A#                   F
No hallaras un recuerdo de mí
     C                   F
Ni tendrás mas amores con-migo
               C     F
Yo te juro que no volveré
             A#
Aun que me hagas pedazo la vida

F
Si una vez con locura te ame
           A#             F
Hoy de mi alma estarás despedida
 A#                                    F
No volveré te lo juro por dios que me miras
                         C         F
Te lo digo llorando de rabia no volveré
 A#                                    F
No parare hasta ver que mi llanto ha formado
                       A#
Un arroyo de olvido abnegado
                         F
Donde yo tu recuerdo ahogare


*Se repite el punteo del principio

                         A#    F
Fuimos nubes que el viento aparto
                               C
Fuimos piedras que siempre chocamos
           A#             F
Gotas de agua que el sol resecó
     C               F
Borracheras que no terminamos

En el tren de la ausencia me voy
     C             A#
Mi boleto no tiene regreso
                        F
Lo que tengas de mi te lo doy
     C                  F
Pero no te devuelvo tus besos
     C                  F
Pero no te devuelvo tus besos
     C                  F
Pero no te devuelvo tus besos

            
            
Suggest correction
Creating personal tab
Creating personal tab
You can edit any tab online and save it as your Personal.

You can edit, replace or remove any tab part or add personal notes – all changes will be seen only by you.

Personal tabs can be accessed anytime from any device, even offline.
Learn more »
Give kudos to tab author, rate the tab!
1 2 3 4 5
comments
print report bad tab
guest
Wanna post a correction for this tab? Suggest correction