Oops, an error
Loading. Please wait.

Como Saber Que Está Bien bass

49 views 1 this week
no commentswrite comment
1 2 3 4 5
3 more votes to show rating
add to favorites
×
Save as Personal and add changes to this tab that will be seen only by you. Learn more ›
×
You can save this tab as Personal to edit and correct it or add notes. All changes will be seen only by you. Learn more »
launch autoscroll
font size
0
reset
guitar tuner
edit
Autoscroll
slow
fast
+/-
esc
set tempo
stop
Otra más de Chabelos, la canción más coherente, musicalmente,
hablando que encontré.
En el solo del bajo hay que guiarse por los tiempos de la canción.

Intro

G|---------------------------------------
D|---12-12-12-11-11--11------------------
A|----------------------14-12-14---------
E|---------------------------------------

G|---------------------------------------
D|---12-12-12-11-11----------------------
A|------------------12-14----------------
E|---------------------------------------

(x4)
G|---------------------------------
D|---------------------------------
A|---5-5-5-5-----------2-----2----- -> (A)
E|-----------5-5-5-5------2-----2--


(A)                                        _
¿Cómo saber que está bien? ¿Como saber?     |
(A)                                         |  ---> (x2)
¡Quiero saber que está bien!¡Quiero saber! _|


Si paseo por la calle, si culeo con tu madre
G|---------------------------------------
D|---5-5-5-4------------5-5-5-4----------
A|---------------------------------------
E|------------5-----------------5--------

si me acabo todo el falso, tiene que estar mal
G|---------------------------------------
D|---5-5-5-5-4-4-4-----------------------
A|-----------------5-4-------------------
E|---------------------5-0-5-0-----------

Si me voy a escuchar misa, llego con mucha prisa
G|---------------------------------------
D|---5-5-5-4------------5-5-5-4----------
A|---------------------------------------
E|------------5-----------------5--------

si me pongo doble jebe, tiene que estar bien
G|---------------------------------------
D|---5-5-5-5-4-4-4-----------------------
A|-----------------5-4-------------------
E|---------------------5-0-5-0-----------


(A)                                        _
¿Cómo saber que está bien? ¿Como saber?     |
(A)                                         |  ---> (x2)
¡Quiero saber que está bien!¡Quiero saber! _|


Si me salen almorranas, de besar no tengo ganas
G|---------------------------------------
D|---5-5-5-4------------5-5-5-4----------
A|---------------------------------------
E|------------5-----------------5--------

si me gusta culear ranas, está bien o mal
G|---------------------------------------
D|---5-5-5-5-4-4-4-----------------------
A|-----------------5-4-------------------
E|---------------------5-0-5-0-----------

Si me gusta andar calato, me masturbo a cada rato
G|---------------------------------------
D|---5-5-5-4------------5-5-5-4----------
A|---------------------------------------
E|------------5-----------------5--------

si me como los mojones, de algún animal
G|---------------------------------------
D|---5-5-5-5-4-4-4-----------------------
A|-----------------5-4-------------------
E|---------------------5-0-5-0-----------

(A)
¿Cómo saber que está bien? ¿Como saber?

(A)
¡Quiero saber que está bien! ¡Quiero saber!

(A)
¿Cómo saber que está bien? ¿Que está bien?


¡Quiero saber que está bien!
G|---------------------------------------
D|---------------------------------------
A|---5-5-5-5-----------2-----------------
E|-----------5-5-5-5---------------------

Solo
G|---------------------------------------
D|--------4-4-----------------------4----
A|---5--5-----5-4-------4---2---2-5------
E|----------------5---5---5--------------

G|---4-4-2-------------------------------
D|---------4-3-2-------------------------
A|---------------5------------------------
E|---------------------------------------

G|---------------------------------------
D|--------4-4-----------------------4----
A|---5--5-----5-4-------4---2---2-5------
E|----------------5---5---5--------------

G|---4-4-4-4-2-----------------------------
D|-------------4-3-2------------------------
A|-------------------5--------------------
E|---------------------------------------

G|---------------------------------------
D|--------4-4-------------------------4----
A|---5--5-----5-4-------4-4---2---2-5------
E|----------------5---5-----5--------------

G|---4-4-2-------------------------------
D|---------4-3-2-------------------------
A|---------------5------------------------
E|---------------------------------------

G|---------------------------------------
D|--------4-4-----------------------4----
A|---5--5-----5-4-------4---2---2-5------
E|----------------5---5---5--------------

G|---4-4-2--2----------------------------
D|------------4-2------------------------
A|----------------5----------------------
E|---------------------------------------

G|---------------------------------------
D|--------4-4-------------------------4----
A|---5--5-----5-4-------4-4---2---2-5------
E|----------------5---5-----5--------------

G|---4-4-2-------------------------------
D|---------4-3-2-------------------------
A|---------------5------------------------
E|---------------------------------------

G|---------------------------------------
D|--------4-4-----------------------4----
A|---5--5-----5-4-------4---2---2-5------
E|----------------5---5---5--------------

G|---4-4-2-------------------------------
D|---------4-3-2-------------------------
A|-----------------5-5-5-----------------
E|-----------------------5-5-5--7-7-7----

G|---------------------------------------
D|---------------------------------------
A|---------5-5-5-------------------------
E|--7-7-7---------5-5-5--7-7-7--7-7-7----


Cómo saber, saber si está bien, Si monto
bicicleta o me monto a tu mujer,
quiero que me digan qué es lo que está mal
si la combi mata gente y yo me tiro a un
animal
quiero que me digan quién tiene la razón
si el gringo hijo de puta o el árabe cabrón
a mí no me gustan, no me gustan las guerras
chúpame la pinga, pero no me la muerdas

Mientras Sergio Galliani canta va esta última
parte
G|---------------------------------------
D|---------------------------------------
A|----5-5-5------------------------------
E|----------5-5-5--7-7-7--7-7-7-------------

(A)                                        _
¿Cómo saber que está bien? ¿Como saber?     |
(A)                                         |  ---> (x2)
¡Quiero saber que está bien!¡Quiero saber! _|


Si caché con una monja, si me paso la luz roja
G|---------------------------------------
D|---5-5-5-4------------5-5-5-4----------
A|---------------------------------------
E|------------5-----------------5--------

si a la combi y al taxista, les da todo igual
G|---------------------------------------
D|---5-5-5-5-4-4-4-----------------------
A|-----------------5-4-------------------
E|---------------------5-0-5-0-----------

Si me voy en bicicleta, si me vengo en tus tetas
G|---------------------------------------
D|---5-5-5-4------------5-5-5-4----------
A|---------------------------------------
E|------------5-----------------5--------

tiene que estar bien o mal, mi instinto animal
G|---------------------------------------
D|---5-5-5-5-4-4-4-----------------------
A|-----------------5-4-------------------
E|---------------------5-0-5-0-----------

Si mi pinga no se erecta, si tu chucha huele a verga
G|---------------------------------------
D|---5-5-5-4------------5-5-5-4----------
A|---------------------------------------
E|------------5-----------------5--------

si el psiquiatra dice pepas, tienes que tomar
G|---------------------------------------
D|---5-5-5-5-4-4-4-----------------------
A|-----------------5-4-------------------
E|---------------------5-0-5-0-----------

Si me la paso de juerga, fumando mucha hierba
G|---------------------------------------
D|---5-5-5-4------------5-5-5-4----------
A|---------------------------------------
E|------------5-----------------5--------

si en vez de cerveza tomo, agua mineral
G|---------------------------------------
D|---5-5-5-5-4-4-4-----------------------
A|-----------------5-4-------------------
E|---------------------5-0-5-0-----------

Si te agarro por las...
G|---------------
D|---5-5-5-5-4---
A|---------------
E|---------------


 ---> cheken mi banda

            
            
Suggest correction
Creating personal tab
Creating personal tab
You can edit any tab online and save it as your Personal.

You can edit, replace or remove any tab part or add personal notes – all changes will be seen only by you.

Personal tabs can be accessed anytime from any device, even offline.
Learn more »
Give kudos to tab author, rate the tab!
1 2 3 4 5
comments
print report bad tab
guest
Wanna post a correction for this tab? Suggest correction