Oops, an error
Loading. Please wait.

Vivo En Un País tab

28 views 1 this week
no commentswrite comment
1 2 3 4 5
3 more votes to show rating
add to favorites
×
Save as Personal and add changes to this tab that will be seen only by you. Learn more ›
×
You can save this tab as Personal to edit and correct it or add notes. All changes will be seen only by you. Learn more »
launch autoscroll
font size
0
reset
how to read this tab
guitar tuner
edit
Autoscroll
slow
fast
+/-
esc
set tempo
stop
/   = deslizar el dedo de un traste al otro
... = dejar vibrar la nota
__________________________________________________________________


Intro:
|---------------------------------------------------|
|-5-5-5-5-5-5-5-5/7-7-7-7-7-7-7-7/9-9-9-9-9-9-9-9---|
|---------------------------------------------------|
|-------------------------------------------------7-|
|---------------------------------------------------|
|---------------------------------------------------|

|-4-4-4-4-4-4-4-4/5-5-5-5-5-5-5-5/7-7-7-7-7-7-7-7-----------------|
|-5-5-5-5-5-5-5-5/7-7-7-7-7-7-7-7/9-9-9-9-9-9-9-9-----------------|
|-----------------------------------------------------------------|
|-------------------------------------------------7-7-5-7-5-7-5-7-|
|-----------------------------------------------------------------|
|-----------------------------------------------------------------|


[SE REPITE EL INTRO EN ESTE VERSO]

Em             F#5
vivo en un pais   que no anda bien
G#5              A5
Soy de una ciudad  q parece q pronto va a morir
Em           F#5  G#5      A5
  LA LA LA LA     LA    LA LA
Em           F#5
Kiero caminar   sin tener q huir
G#5                         A5
KIero despertar y que mis amigos aun esten aki


  Em     F#5    G#5    A5
|------------------------|
|-5------7------9--------|
|----------------------7-|
|------------------------| X2
|------------------------|
|------------------------|
 LA LA LA LA   LA   LA LA
 muchos ya se han ido
 otros estan de vuelta
 pero nadio encuentra un lugar

 para ser feliz               <== [estas lineas van
 LA LA LA LA   LA   LA LA     <== con el intro]


Em           F#5
y yo sigo aki   esperando tu regreso
G#5          A5
y yo sigo aki  buscando que cambiar

Em           F#5
y yo sigo aki   mas tieso que un hueso
G#5                 A5
muerto muerto muerto muerto muerto muerto Y SIN UN LUGAR!
Em           F#5  G#5      A5
  LA LA LA LA     LA    LA LA
[ESTA ULTIMA LINEA TAMBIEN VA CON EL INTRO]


|-4-4-4-4-4-4-4-4/5-5-5-5-5-5-5-5/7-7-7-7-7-7-7-7-----------------|--|----|
|-5-5-5-5-5-5-5-5/7-7-7-7-7-7-7-7/9-9-9-9-9-9-9-9-----------------|--|-5··|
|-----------------------------------------------------------------|--|----|
|-------------------------------------------------7-7-5-7-5-7-5-7-|X2|----|
|-----------------------------------------------------------------|--|----|
|-----------------------------------------------------------------|--|----|

            
            
Suggest correction
Creating personal tab
Creating personal tab
You can edit any tab online and save it as your Personal.

You can edit, replace or remove any tab part or add personal notes – all changes will be seen only by you.

Personal tabs can be accessed anytime from any device, even offline.
Learn more »
Give kudos to tab author, rate the tab!
1 2 3 4 5
comments
print report bad tab
guest
Wanna post a correction for this tab? Suggest correction