Oops, an error
Loading. Please wait.

Güeina bass

10 views 1 this week
no commentswrite comment
1 2 3 4 5
3 more votes to show rating
add to favorites
×
Save as Personal and add changes to this tab that will be seen only by you. Learn more ›
×
You can save this tab as Personal to edit and correct it or add notes. All changes will be seen only by you. Learn more »
launch autoscroll
font size
0
reset
guitar tuner
edit
Autoscroll
slow
fast
+/-
esc
set tempo
stop
Inrto
G|--------------|
D|--------------|
A|--------------|
E|-000000000002-|

(aki entran todos los instrumentos)
G|-------------|
D|-------------|
A|-------------|
E|-00000000000-|

Verso
Naríz respingada....
G|------------------------------------------------------------|
D|------------------------------------------------------------|
A|------------------------------------------------------------|
E|-2222222-1111111-3333333-2-22222--0-2222222-1111111-0000000-|

Nunca falto nada en la casa de barbie...
G|------------------------------------------------------------|
D|------------------------------------------------------------|
A|------------------------------------------------------------|
E|-2222222-1111111-3333333-2-22222--0-2222222-1111111-0000000-|

Coro
Güeina, Güeina...
G|------------------------------------------------------|
D|------------------------------------------------------|
A|---1-3---1-3---1-3------------1-3---1-3---1-3---------|
E|-3-----3-----3-----2222222--3-----3-----3-----2222222-|

Güeina, Güeina...
G|------------------------------------------------------|
D|------------------------------------------------------|
A|---1-3---1-3---1-3------------1-3---1-3---1-3---------|
E|-3-----3-----3-----2222222--3-----3-----3-----2222222-|

Verso 2
En este pais de calentones...
G|-----------------------------------------------|
D|-----------------------------------------------|
A|-6h7-6-4-6-4---4--------6h7-6-4-6-4------------|
E|-------------6---6-4-6--------------6-44444444-|

Falta nacer mina rica...
G|-----------------------------------------------|
D|-----------------------------------------------|
A|-6h7-6-4-6-4---4--------6h7-6-4-6-4------------|
E|-------------6---6-4-6--------------6-44444444-|

Coro
Güeina, Güeina...
G|------------------------------------------------------|
D|------------------------------------------------------|
A|---1-3---1-3---1-3------------1-3---1-3---1-3---------|
E|-3-----3-----3-----2222222--3-----3-----3-----2222222-|

Güeina, Güeina...
G|------------------------------------------------------|
D|------------------------------------------------------|
A|---1-3---1-3---1-3------------1-3---1-3---1-3---------|
E|-3-----3-----3-----2222222--3-----3-----3-----2222222-|

Verso 3
Sonrisa perfecta...
G|-----------------------------------------------|
D|-----------------------------------------------|
A|-6h7-6-4-6-4---4--------6h7-6-4-6-4------------|
E|-------------6---6-4-6--------------6-44444444-|

Naciste y ya lo tienes todo...
G|-----------------------------------------------|
D|-----------------------------------------------|
A|-6h7-6-4-6-4---4--------6h7-6-4-6-4------------|
E|-------------6---6-4-6--------------6-44444444-|

Outro
Güeina,güeina,güeina...
G|------------------------------------------------------------------|
D|------------------------------------------------------------------|
A|------------------------------------------------------------------|
E|-2222222-1111111-3333333-2-22222--2222222-1111111-3333333-2-22222-|

Güeina,güeina,güeina...
G|------------------------------------------------------------|
D|------------------------------------------------------------|
A|------------------------------------------------------------|
E|-2222222-1111111-3333333-2-22222--0-2222222-1111111-0000000-|


Bueno, yo caxo q esta bien esta cancion.. suena la raja...   y yapo  saludos a mis amigos... y..
.. ¡¡¡VIVA CHILE MIERDA Y LOS CHANCHO EN PIEDRA!!!

            
            
Suggest correction
Creating personal tab
Creating personal tab
You can edit any tab online and save it as your Personal.

You can edit, replace or remove any tab part or add personal notes – all changes will be seen only by you.

Personal tabs can be accessed anytime from any device, even offline.
Learn more »
Give kudos to tab author, rate the tab!
1 2 3 4 5
comments
print report bad tab
guest
Wanna post a correction for this tab? Suggest correction