Oops, an error
Loading. Please wait.

La Telaraña bass

84 views 1 this week
no commentswrite comment
1 2 3 4 5
3 more votes to show rating
add to favorites
×
Save as Personal and add changes to this tab that will be seen only by you. Learn more ›
×
You can save this tab as Personal to edit and correct it or add notes. All changes will be seen only by you. Learn more »
launch autoscroll
font size
0
reset
guitar tuner
edit
Autoscroll
slow
fast
+/-
esc
set tempo
stop
Hola amigos les envio este tab a aquellos bajistas que recien comiezan
con esta cancion de chancho en piedra llamada la telaraña.

Esta es la intro si se fijan es muy rapido por lo que pondre los espacios
un poco juntos.
E|-5-9---------9-5-9---------9-5-9---------9-5-9---------9-
A|----7-7---7-7-----7-7---7-7-----8-8---8-8-----8-8---8-8--
D|-----7-7-7-7-------7-7-7-7-------7-7-7-7-------7-7-7-7--- X2
G|--------6-------------6-------------6-------------6------

E|-7-10---------10-7-10---------10-9-12-------------12-----
A|-----9-9---9-9-------9-9---9-9-------11-----11--11-------
D|------9-9-9-9---------9-9-9-9----------11-11--11---------
G|---------7---------------7---------------9---------------

E|-9-12-------------12-7-10---------10-7-10---------10-----
A|-----11-----11--11-------9-9---9-9-------9-9---9-9-------
D|-------11-11--11----------9-9-9-9---------9-9-9-9--------
G|---------9-------------------7---------------7-----------

E|-12-16------------------16-12-16------------------16-----
A|------14--14------14--14--------14--14------14--14-------
D|--------14--14--14--14------------14--14--14--14---------
G|--------------11------------------------11---------------

E|-5-5-0-5-0-
A|-----------
D|----------- X8
G|-----------


 sebastian_barrientos@
ese es mi correo bueno los dejo espero que les sirva si algo anda mal

            
            
Suggest correction
Creating personal tab
Creating personal tab
You can edit any tab online and save it as your Personal.

You can edit, replace or remove any tab part or add personal notes – all changes will be seen only by you.

Personal tabs can be accessed anytime from any device, even offline.
Learn more »
Give kudos to tab author, rate the tab!
1 2 3 4 5
comments
print report bad tab
guest
Wanna post a correction for this tab? Suggest correction