Oops, an error
Loading. Please wait.

Moscardón bass

version 1
version 1

Whole song

Interactive

95 views 1 this week
no commentswrite comment
1 2 3 4 5
3 more votes to show rating
add to favorites
×
Save as Personal and add changes to this tab that will be seen only by you. Learn more ›
×
You can save this tab as Personal to edit and correct it or add notes. All changes will be seen only by you. Learn more »
launch autoscroll
font size
0
reset
guitar tuner
edit
Autoscroll
slow
fast
+/-
esc
set tempo
stop
El intro y coro es normal y las otras w**s son con slap
Intro

G|------------|------------|------------|------------|
D|------------|------------|------------|------------|
A|-5-7-7-7-7-7|-5-7-7-7-7-7|-5-7-7-7-7-7|-5-7-7-7-7-7|
E|------------|------------|------------|------------|

 Estrofa 


G|------5-3---|------5-3---|------5-3---|------------|
D|------------|------------|------------|------------| X2
A|--3-2------0|--3-2-----0-|--3-2-----0-|-0-3-2------|
E|------------|------------|------------|-------3-2--|


G|------------|------------|------------|------------|
D|------------|------------|------------|------------|
A|-0-3-2------|-0-3-2------|-0-3-2------|-0-3-2------|
E|-------3-2--|-------3-2--|-------3-2--|-------3-2--|


G|------5-3---|------5-3---|------5-3---|------------|
D|------------|------------|------------|------------| 
A|--3-2------0|--3-2-----0-|--3-2-----0-|-0-3-2------|
E|------------|------------|------------|-------3-2--|


Coro

G|------------|------------|------------|------------|
D|------------|------------|------------|------------|
A|-5-7-7-7-7-7|-5-7-7-7-7-7|-5-7-7-7-7-7|-5-7-7-7-7-7|
E|------------|------------|------------|------------|


Estrofa

Coro ( ahora se toca 2 veces el coro )

Ahora viene algo raro que no se cómo llamarlo pero se toca así

G|---------|  Estos se toca en la parte que dice ...se aglomeran los simios para el herido ver.... 
D|---------|
A|---------|
E|-0-1-2-3-|


Luego de esto viene (mientras la guitarra toca el solo)


G|------5-3---|------5-3---|------5-3---|------------|
D|------------|------------|------------|------------| 
A|--3-2------0|--3-2-----0-|--3-2-----0-|-0-3-2------|
E|------------|------------|------------|-------3-2--|


G|------------|------------|
D|------------|------------|
A|-0-3-2------|-0-3-2------|¡Solo 2 veces!
E|-------3-2--|-------3-2--|

Hay un silencio y luego vuelve con 

G|------5-3---|------5-3---|
D|------------|------------| 
A|--3-2------0|--3-2-----0-|
E|------------|------------|

Ahora se toca la estrofa normal y luego el coro 2 veces

Al final se toca 

G|---------|   
D|---------|
A|---------|
E|-0-1-2-3-|

Y termina en 

G|-----|
D|-----|
A|-----|
E|-0---|

            
            
Suggest correction
Creating personal tab
Creating personal tab
You can edit any tab online and save it as your Personal.

You can edit, replace or remove any tab part or add personal notes – all changes will be seen only by you.

Personal tabs can be accessed anytime from any device, even offline.
Learn more »
Give kudos to tab author, rate the tab!
1 2 3 4 5
comments
print report bad tab
guest
Wanna post a correction for this tab? Suggest correction