Oops, an error
Loading. Please wait.

Celoso No Soy tab

22 views 1 this week
no commentswrite comment
1 2 3 4 5
3 more votes to show rating
add to favorites
×
Save as Personal and add changes to this tab that will be seen only by you. Learn more ›
×
You can save this tab as Personal to edit and correct it or add notes. All changes will be seen only by you. Learn more »
launch autoscroll
font size
0
reset
how to read this tab
guitar tuner
edit
Autoscroll
slow
fast
+/-
esc
set tempo
stop
Carnavalito del chaqueño,
Por 6º vez estoy transcribiendo una canción del chaqueño como
lo fueron Balderrama;Cuando llora mi guitarra;línea curva;
nostalgias tucumanas..veni y pronto muchas  je va espero
les guste..((kukiford@

Celoso no soy--Chaqueño Palavecino..

(INTRO)

e-0|-3-3-3|-000|-3-3-3|-0-|-3-3-3-|-0-0---|-0-----|---------|
B-1|-5-5-5|-111|-5-5-3|-1-|-5-5-5-|-1-1-3-|-1-3-0-|-0-3-3-3-|
G--|------|----|------|---|-------|-----4-|---4-0-|-0-4-4-4-|
D--|------|----|------|---|-------|-------|-------|---------|
A--|------|----|------|---|-------|-------|-------|---------|
E--|------|----|------|---|-------|-------|-------|---------|

e-----|------|--------------|--------|---3-3-3|------|-333-|
B-000-|-3-3-3|-1-3-1-3-1-0--|-----0-1|-3-3-3-3|-3-3-3|-333-|
G-000-|-4-4-4|-2-4-2-4-2-0-0|--0-2---|-4------|-4-4-4|-----|
D-----|------|-------------2|-4------|--------|------|-----|
A-----|------|--------------|--------|--------|------|-----|
E-----|------|--------------|--------|--------|------|-----|

e-5-7-|-5-7-|-5-3-0-||---
B-----|-----|-----0-||---
G-5-8-|-5-8-|-5-4-0-||---
D-----|-----|-------||---
A-----|-----|-------||---
E-----|-----|-----0-||---

DO                       RE                 SOL 
Asi con dueño te quiero ,por que celoso no soy,
SOL               LA    SOL      SI7        MIm
y compartirt prefiero antes q andar sin tu amor,
SOL              LA       SOL      SI7      MIm
yo compartirte prefiero por que mesquino no soy.

Y si a escondidas nos vemos yo entendere la razon
por que en amores como estos finges que es mi corazon.
Y para serte sinsero que nadie sepa es mejor.

(Estribillo)


RE                 SOL    DO   RE          SOL 
Por que mujer no pretendo ser unico en tu amor
DO         SOL   LA   SOL    DO     SOL      SI7   MIm
quiero tus besos tu corazon, aunque tu dueño no sea yo.
DO         SOL   LA   SOL    DO     SOL      SI7   MIm
Dame tus besos tu corazon aunque otro dueño tenga tu amor.


No quiero ser el primero que en tu querer se enrredo
ni ser el ultimo quiero, que ha de quedarse con vos.
Ni el ultimo ni el primero prefiero ser el mejor.


Final...

DoM-SolM-LaM-SolM-DoM-SolM-Si7-Mim

Punteo de la intro...YYY ---SI7-Mim-Si7-Mim Mim Mim

            
            
Suggest correction
Creating personal tab
Creating personal tab
You can edit any tab online and save it as your Personal.

You can edit, replace or remove any tab part or add personal notes – all changes will be seen only by you.

Personal tabs can be accessed anytime from any device, even offline.
Learn more »
Give kudos to tab author, rate the tab!
1 2 3 4 5
comments
print report bad tab
guest
Wanna post a correction for this tab? Suggest correction