Oops, an error
Loading. Please wait.

Piel Chaqueña tab

23 views 1 this week
no commentswrite comment
1 2 3 4 5
3 more votes to show rating
add to favorites
×
Save as Personal and add changes to this tab that will be seen only by you. Learn more ›
×
You can save this tab as Personal to edit and correct it or add notes. All changes will be seen only by you. Learn more »
launch autoscroll
font size
0
reset
how to read this tab
guitar tuner
edit
Autoscroll
slow
fast
+/-
esc
set tempo
stop
Bueno aqui les dejo este temaso,
escuchenlo bien, ahi estan los arreglos del violin..
cualquier cosita me consultan...


Intro: Am - Am - Am - G - G
       Am - Am - G - G - Am
       E7 - Am - E7 - Am - Am - Am

VIOLIN

e)-5-7-8-8-8-8-7-5-7-
B)-------------------
G)-5-7-9-9-9-9-7-5-7-

e)-3-5-7-7-7-7-5-3-5-
B)-------------------
G)-4-5-7-7-7-7-5-4-5- X2

e)-8-7-5-7--7-5-4-5-
B)------------------
G)-9-7-5-7--7-5-4-5-

e)-8-7-5-7--7-5-4-5-
B)------------------
G)-9-7-5-7--7-5-4-5-

      E7           Am
El carmín de las auroras
          C            D
hoy me trae un nuevo día
          Am         G            Am
y una astilla de tu vida me dio amor

    E7           Am
El marfil de tu sonrisa
        C              D
se espacio junto a tu tierra
     Am             G           Am
mi morena, piel chaquena, mi vergel

Am                                  G
Allá va el corcel, ese potro de tu corazón

sin frenar su pasión
                            Am
se fue al campo verde del amor

Am                                    G
Al mirar el manjar es la fruta de tu corazón

fue la miel de los dos
                            Am E7 Am
que endulzo nuestra vida de am oo or

INTERLUDIO:
Am - Am - G - G - Am - Am
G - G - Am - E7 - Am - E7
Am - Am - Am

e)--------------------1-0---
B)---0-1-1-3-1-0----0-----3-
G)-2--------------2---------

e)--------------------0-----
B)-----0-0-1-0----------3-1-
G)-0-2---------2-0-2--------

e)--------------------1-0---
B)---0-1-1-3-1-0----0-----3-
G)-2--------------2---------

e)--------------------
B)-----0-0-1-0--------
G)-0-2---------2-0-2--

e)-8-7-5-7--7-5-4-5-
B)----------------5-
G)-9-7-5-7--7-5-4-5-

e)-8-7-5-7--7-5-4-5-
B)----------------5-
G)-9-7-5-7--7-5-4-5-

    E7          Am
El poema de tus besos
     C          D
los leí dentro de tu alma
          Am             G          Am
y en las quietas mansas agua de cristal

    E7               Am
Sos arco iris de mis días
          C           D
en sí la lluvia del verano
       Am           G              Am
en mis manos fue la noche un trajinar

Am                                  G
Allá va el corcel, ese potro de tu corazón

sin frenar su pasión
                            Am
se fue al campo verde del amor

Am                          Am  F  Fsos  G
Al mirar el manjar es la fruta de tu     corazón

fue la miel de los dos
                            Am E7 Am
que endulzo nuestra vida de am oo or


 E7      Am      G - Am - E7
De amor, de amor.

FIN: Am - E7 - Am

Estos son los arreglos de la 1er
y 2da estrofa. Son los arrastres
de las dobles cuerdas del violin.
los colocare sobre la letra con
un *1 = arrastre 1

Arrastres estrofa 1
   *1       *2      *3
E)-5/0-  E)-----  E)-5/8-
B)-5/1-  B)-8/3-  B)-----
G)-----  G)-7/4-  G)-5/9-


Arrastres estrofa 2
   *4       *5      *6
E)-8/5-  E)-7/3-  E)-5/8-
B)-----  B)-----  B)-----
G)-9/5-  G)-7/4-  G)-5/9-

Arreglo Estrofra 4

e)-5-4-3-2-1-0---------
B)-------------3-3-1-1-
G)---------------------

e)----------
B)-3-3-5----
G)-4-4------

Arreglo Estribillo

Violin

stacato sobre G
G)-0-
D)--- X8
A)-2-

stacato sobre Am
G)-2-
D)--- X10
A)-3-

stacato sobre G
G)-0-
D)--- X8
A)-2-

 sobre Am - E7 - Am
B)-1---0--- --
G)---------2--
D)-2---0------
A)---------3--

FINAL

e)--0---0--
B)---------
G)---------
D)--2---2--

e)-5-4-3------------------
B)---------5--3--1-------
G)---------------------2-
D)------------------2----


espero que les guste la cancion
como le gusta al pesado de mi suegro
si quieren que les saque cualqier tema de folclore
pero cualquiera escriban ,mato_la84@

            
            
Suggest correction
Creating personal tab
Creating personal tab
You can edit any tab online and save it as your Personal.

You can edit, replace or remove any tab part or add personal notes – all changes will be seen only by you.

Personal tabs can be accessed anytime from any device, even offline.
Learn more »
Give kudos to tab author, rate the tab!
1 2 3 4 5
comments
print report bad tab
guest
Wanna post a correction for this tab? Suggest correction