Oops, an error
Loading. Please wait.

Salta Es Una Mujer Morena tab

49 views 1 this week
no commentswrite comment
1 2 3 4 5
3 more votes to show rating
add to favorites
×
Save as Personal and add changes to this tab that will be seen only by you. Learn more ›
×
You can save this tab as Personal to edit and correct it or add notes. All changes will be seen only by you. Learn more »
launch autoscroll
font size
0
reset
how to read this tab
guitar tuner
edit
Autoscroll
slow
fast
+/-
esc
set tempo
stop
Creo q esta un 80% correcta.. Pero suena bien..
Intro:
2° Guitarra
                    Riff1   FA      /                   DO      |
1° Guitarra
e|--8--8--8--8--8---5-7-8---8/10--10-8--/----------8-------------------|
b|--10-10-10-10-10--6-8-10-10/12--12-10-/--8/10-10-10---8---6---5-6-8--|
g|--------------------------------------/--8/10-10----9---7---5---7-9--|
d|--------------------------------------/------------------------------|
a|--------------------------------------/------------------------------|
E|--------------------------------------/------------------------------|

2° Guitarra
MI7                           / DO            MI7    LAm |

1° Guitarra
e|--7--9-10---7--9-10---7--9-10--/-12-12-12-12-12--12----10-----|
b|--9-10-12---9-10-12---9-10-12--/-13-13-13-13-13-----10--8-----|
g|-------------------------------/------------------------------|X2
d|-------------------------------/------------------------------|
a|-------------------------------/------------------------------|
E|-------------------------------/------------------------------|

2° Guitarra
   MI7-LAm

1° Guitarra
e|----4---4--5-------------------------------------------------|
b|---3-3-3---5-------------------------------------------------|
g|--4---4----5-------------------------------------------------|
d|-------------------------------------------------------------|
a|-------------------------------------------------------------|
E|-------------------------------------------------------------|


                     g/--------------/
                     D/--------------/
    Riff 1:          a/--2-3-2-0-----/
                     E/----------3-1-/
Suggest correction
Creating personal tab
Creating personal tab
You can edit any tab online and save it as your Personal.

You can edit, replace or remove any tab part or add personal notes – all changes will be seen only by you.

Personal tabs can be accessed anytime from any device, even offline.
Learn more »
Give kudos to tab author, rate the tab!
1 2 3 4 5
comments
print report bad tab
guest
Wanna post a correction for this tab? Suggest correction