Oops, an error
Loading. Please wait.

Tramposo tab

22 views 1 this week
no commentswrite comment
1 2 3 4 5
3 more votes to show rating
add to favorites
×
Save as Personal and add changes to this tab that will be seen only by you. Learn more ›
×
You can save this tab as Personal to edit and correct it or add notes. All changes will be seen only by you. Learn more »
launch autoscroll
font size
0
reset
how to read this tab
guitar tuner
edit
Autoscroll
slow
fast
+/-
esc
set tempo
stop
En "Am"

Intro:
                              Am           A7                   Dm
----------------5-7-8-7-5-8-------9-9-9----------9-10-12-12s13-12-10-9
------------0-1-------------------------10----10----------------------
2-2-------2--------------------------------12-------------------------
----2---2-------------------------------------------------------------
------3---------------------0-2-3-------------------------------------
----------------------------------------------------------------------

Despues haber echo lo anterior hay dos opciones para el resto.

Opción 1

 Dm        E7 Am       F7  E7                      Am
-----1--0--------0---------1-0------------------------*
-----3--1--3-----1--3--1-------3-1-0------------------*
-----------4--------4--2-------------2-1--------------*
-----------------------------------------3-2-0--------*
-----------------------------------------------3-2-0--*
------------------------------------------------------*


u Opción 2

                     Dm                        Am
-----10----------5------------5------------5------------8-7-8--*
---------------6---6--------6---6--------5---5--------5--------*
--10---------7-------7----7-------7----5-------5----5----------*
-----------7------------7------------7------------7------------*
---------------------------------------------------------------*
---------------------------------------------------------------*
      E7                      Am
1)-*--------------------------------*
2)-*--6-5---------------------------*
3)-*------7-5-4---------------------*
4)-*------------7-6-----------------*
5)-*----------------8-7-5-----------*
6)-*----------------------8-7-5-----*


  Am             E7     Am
     Vaya teniendo cuidado
       A7                           Dm
     SI esta engañando A este criollo   Arreglo 1
  Dm                           Dm
     por algo ay ser que en la tierra
  F7                     B7     E7
     la trampa se ha hecho pal zorro
  Dm                            Am G F7
     por algo ay ser que en la tierra
     E7                            Am   Arreglo 2
     la trampa se ha hecho pal zorro

Usa las mismas notas del anterior

     Si me engaño en la cuadrera
     la barba ponga en remojo
     que usted solito compadre
     esta cavandose el pozo

Estribillo:
    A7
     Ese que lleva las riendas
     A7                          Dm
     mejor que no se haga el tonto
     Dm                 Dm
     yo le confie mi caballo
       F7                   B7 E7
     y el le ha vendado los ojos
    Dm                     Am G F7
     a los que juegan tan sucio
     E7                      Am
     ahi que bajarlos del lomo


En el final del camino
se ha de mancar el tramposo
y todo lo mal habido
vendra a quitarle el demonio


Aquel que vende un amigo
queriendo hacer buen negocio
hoy tiene pan para el dia
despues lo comen los piojos


Estrbillo:


Arreglo 1:

1)-*---1--3--5--3--1----------*
2)-*---3--5--6--5--3----------*
3)-*--------------------------*
4)-*--------------------------*
5)-*--------------------------*
6)-*--------------------------*

Arreglo 2:

1)-*--0---0---0---0---0-0-----*
2)-*----4---3---2---1---1-----*
3)-*--------------------2-----*
4)-*--------------------2-----*
5)-*--------------------0-----*
6)-*--------------------------*


Saludos. Eduardo. roman13386@

            
            
Suggest correction
Creating personal tab
Creating personal tab
You can edit any tab online and save it as your Personal.

You can edit, replace or remove any tab part or add personal notes – all changes will be seen only by you.

Personal tabs can be accessed anytime from any device, even offline.
Learn more »
Give kudos to tab author, rate the tab!
1 2 3 4 5
comments
print report bad tab
guest
Wanna post a correction for this tab? Suggest correction