Oops, an error
Loading. Please wait.

Veni tab

44 views 3 this week
no commentswrite comment
1 2 3 4 5
3 more votes to show rating
add to favorites
×
Save as Personal and add changes to this tab that will be seen only by you. Learn more ›
×
You can save this tab as Personal to edit and correct it or add notes. All changes will be seen only by you. Learn more »
launch autoscroll
font size
0
reset
how to read this tab
guitar tuner
edit
Autoscroll
slow
fast
+/-
esc
set tempo
stop
Linda chacarera del chaqueño, y vi q no estaba bien sus acordes
entoncesdecidí pasarle la tablatura de la intro y los acordes.
Por 5º vez estoy transcribiendo una canción del chaqueño como
lo fueron Balderrama;Cuando llora mi guitarra;línea curva;
nostalgias tucumanas..y pronto muchas mas..je je va... espero
les guste..((kukiford@

Veni--Chaqueño Palavecino..

(INTRO)

e--------------------------------------|------------------------
B----4-6-6-6-6^4--4-----4-6-6-6-6^3-3--|---3-6-6-6-6^3-6-6-6-6^3
G--5-------------5-5--5------------4-4-|-4------------4---------
D--------------------------------------|------------------------
A--------------------------------------|------------------------
E--------------------------------------|------------------------

e----1-3-1------------------------|-------6-8-6-4-3-4--|------8-
B-0-3-----4-3-4----4-6-6-6-6^4-4--|-5-6-8------------6-|----9---
G--------------5--5-----------5-5-|--------------------|-10-----
D---------------------------------|--------------------|--------
A---------------------------------|--------------------|--------
E---------------------------------|--------------------|--------

e-11-10-10^8-|--8-|-11-10-10^7-|--7-|-11-10-10^8-|--8-|------|-
B------------|-8--|------------|-8--|------------|-8--|-11-9-|-
G------------|----|------------|----|------------|----|------|-
D------------|----|------------|----|------------|----|------|-
A------------|----|------------|----|------------|----|------|-
E------------|----|------------|----|------------|----|------|-

e----8--11-10-10^8-|--8-|-11-10-10^7-|--7-|-11-10-8-|------|---8
B---9--------------|-8--|------------|-8--|---------|-8----|--8-
G-10---------------|----|------------|----|---------|--8---|-8--
D------------------|----|------------|----|---------|---10-|----
A------------------|----|------------|----|---------|------|----
E------------------|----|------------|----|---------|------|----


DOm                                                    SOL 
Veni... veni conmigo esta noche que no hay consuelo que valga
                                                 DOm
cuando te extraña mi pecho siento un vació en el alma.
DO7                                                 FAm
Veni... que cuando no estas conmigo el corazón se me hiela
                       SIb                            RE# 
y cuando estas cerca siento que ardo por dentro y por fuera.
 SOL                                                  DOm
Veni... que ya no me quedan rezos para pedir por tu nombre
      SOL                                             DOm
y de esta pasión que siento hasta los santos se esconden.
                      FAm                     DOm
Veni que me estoy muriendo, por estrecharte en mis brazos
                       SOL                       DOm
y alegrarme cuando adentro las penas se hagan pedazos.
 FAm                                             DOm
Veni que es una injusticia, dejar que este amor se muera
                      SOL                         DOm
si una lluvia de caricias, dentro de mi alma te espera.

<<<<<<<<<<(INTRO)>>>>>>>>>>>

((((Aca van los mismos acordes, q al principio..))))

Veni... que estando el amor ausente el alma pende de un hilo
milagro que uno lo tiene, no hay que darlo por perdido.

Veni... que aguanta la primavera en esta pecho con frío
y aromas de flores nuevas le andan peleando al olvido.

Veni... que sin pronunciar palabra voy a salir a tu encuentro
Mi boca desabitada vive esperando tus besos.

Veni que me estoy muriendo, por estrecharte en mis brazos
y alegrarme cuando adentro las penas se hagan pedazos.

Veni que es una injusticia, dejar que este amor se muera
si una lluvia de caricias, dentro de mi alma te espera.
FAm                                                 DOm
Veni que es una injusticia, dejar que este amor se muera
                      SOL                                 DOm
si una lluvia de caricias, dentro de mi alma..te espe..e..ra.

FINAL...................................
FAm-DOm-SOL -DOm..... (golpes) SOL -DOm


Muchas Gracias..por todo...Cualquier cosa...mail..
kukiford@

            
            
Suggest correction
Creating personal tab
Creating personal tab
You can edit any tab online and save it as your Personal.

You can edit, replace or remove any tab part or add personal notes – all changes will be seen only by you.

Personal tabs can be accessed anytime from any device, even offline.
Learn more »
Give kudos to tab author, rate the tab!
1 2 3 4 5
comments
print report bad tab
guest
Wanna post a correction for this tab? Suggest correction