Oops, an error
Loading. Please wait.

No Estás Solo tab

13 views 1 this week
no commentswrite comment
1 2 3 4 5
3 more votes to show rating
add to favorites
×
Save as Personal and add changes to this tab that will be seen only by you. Learn more ›
×
You can save this tab as Personal to edit and correct it or add notes. All changes will be seen only by you. Learn more »
launch autoscroll
font size
0
reset
how to read this tab
guitar tuner
edit
Autoscroll
slow
fast
+/-
esc
set tempo
stop
INTRO

e|-----------------------------------|
B|-----------------------------------|
G|-----------------------------------|
D|---5-5-5---------------------------| x4
A|---------3-3-3-5-5-5-7-7-7-7-7-7---|
E|-----------------------------------|


C5
 De tu vida trabajar y tapar la realidad
  F5
 no es lo que yo quiero ni ambiertar ser bueno
C5
 dejar todo como es y asi podras
       F5
 conservar tu empleo y ser un buen ejemplo

A5        E5                        F5
  no das mas, siempre vives llendo por detras


INTRO x2


C5
 tu semilla vale mas, que pagar la vanidad
  F5
 de aplaudir tan lento desde tu silencio
C5
 miras otros como crees, que podrias llegar a ser
 F5
 en algun momento si enfrentas tus miedos

A5        E5                          F5
  no das mas no vivas siempre viendo por detras


C5                              F5
 no estes solo, no estas solo    no estas solo, no estas solo

C5                              F5
 no estes solo, no estas solo    no estas solo, no estas solo

G5                              F5
 no estes solo, no estas solo    no estas solo, no estas solo

C5                              F5                             C5
 no estes solo, no estas solo    no estas solo, no estas solo


e|-------------------------------------|
B|-------------------------------------|
G|-------------------------------------|
D|---5-5-5-----------------------------| x4
A|---------3-3-3-5-5-5-7-7-7-5-5-3-3---|
E|-------------------------------------|


C5                              F5
 no estes solo, no estas solo    no estas solo, no estas solo...


Asi les va a sonar muy bien

            VERSO                        ESTRIBILLO

     C5   F5      A5   E5   F5       C5  F5    G5  F5
e|-------------------------------|---------------------|
B|-------------------------------|---------------------|
G|---5----10---------------------|---5-----------------|
D|---5----10------7----9----10---|---5---3-----5---3---|
A|---3----8-------7----9----10---|---3---3-----5---3---|
E|----------------5----7----8----|-------1-----3---1---|
Suggest correction
Creating personal tab
Creating personal tab
You can edit any tab online and save it as your Personal.

You can edit, replace or remove any tab part or add personal notes – all changes will be seen only by you.

Personal tabs can be accessed anytime from any device, even offline.
Learn more »
Give kudos to tab author, rate the tab!
1 2 3 4 5
comments
print report bad tab
guest
Wanna post a correction for this tab? Suggest correction