Oops, an error
Loading. Please wait.

Empanízame La Mojarra tab

53 views 1 this week
no commentswrite comment
1 2 3 4 5
3 more votes to show rating
add to favorites
×
Save as Personal and add changes to this tab that will be seen only by you. Learn more ›
×
You can save this tab as Personal to edit and correct it or add notes. All changes will be seen only by you. Learn more »
launch autoscroll
font size
0
reset
how to read this tab
guitar tuner
edit
Autoscroll
slow
fast
+/-
esc
set tempo
stop
ai wey esto esta cabron pss aki les dejo la de empanizame la mojarra ke
siempre kise sakar y asta aora pude


INTRO-.


|-------------------------2-1-0 largo
|--------------2-2-1-0-2-1-----
|-2-2-1-0-2-1-0----------------
|------------------------------   2x
|------------------------------
|------------------------------
 luego 4 Em

Let´s go gays se repite el intro

|--------------------------------
|--------------------------------
|-7-5-7-5-7----------------------
|-----------5-7 largo---7-5 largo   3x
|--------------------------------
|--------------------------------

Te pones tus botas te pintas la boca y ese pantalon tan pegado,
acampanado!

|-0-0-0-0-0-0-0-0-0-0-0-0-0-0-0-0-0-0
|-2---4-2---4-2---4-2---4-2---4-2---4
|------------------------------------
|------------------------------------
|------------------------------------
|------------------------------------

y ya verga verga va eso en toda la letra  despues bajan

|------------------------------------
|-0-0-0-0-0-0-0-0-0-0-0-0-0-0-0-0-0-0
|-2---4-2---4-2---4-2---4-2---4-2---4
|------------------------------------
|------------------------------------
|------------------------------------

la verdad no se si este bien pero ya de ai si pueden corrijanla

a si y lo de la 2da guitarra en el coro LLEVA SLIDE


|-xxxxxxxxxxxxxxxxxxxxxxxxxxxxxxxx
|-xxxxxxxxxxxxxxxxxxxxxxxxxxxxxxxx
|-0-3 y deslisas asta el 12-----12
|-0-3 sssssssssssssssssssssssss-12
|-0-3 sssssssssssssssssssssssss-12
|-0-3 sssssssssssssssssssssssss-12


|-xxxxxxxxxxxxxxxxxxxxxxxxxxxxxxxx
|-xxxxxxxxxxxxxxxxxxxxxxxxxxxxxxxx
|-0-3 y deslisas asta el 11-----11
|-0-3 sssssssssssssssssssssssss-11
|-0-3 sssssssssssssssssssssssss-11
|-0-3 sssssssssssssssssssssssss-11

despues (parte del coro)


|-xxxxxxxxxxxxxxxxxxxxxxxxxxxxxxxx
|-xxxxxxxxxxxxxxxxxxxxxxxxxxxxxxxx
|-0-3 y deslisas asta el 10-----10
|-0-3 sssssssssssssssssssssssss-10
|-0-3 sssssssssssssssssssssssss-10
|-0-3 sssssssssssssssssssssssss-10


el solo me kedo bien cagado asi ke no la pondre


a si esta echa una verga la puse komo venia ya el final es lo mismo

y no sean culeros corrijanla nomas la sake de mamada al ai se va

mentadas de madre y sugerencias o preguntar porke este puto vocaulario

´´CORRIENTE´´

MSN:  supermarihuanos-vbs@

            
            
Suggest correction
Creating personal tab
Creating personal tab
You can edit any tab online and save it as your Personal.

You can edit, replace or remove any tab part or add personal notes – all changes will be seen only by you.

Personal tabs can be accessed anytime from any device, even offline.
Learn more »
Give kudos to tab author, rate the tab!
1 2 3 4 5
comments
print report bad tab
guest
Wanna post a correction for this tab? Suggest correction