Oops, an error
Loading. Please wait.

Canción Del Dos Por Tres tab

49 views 1 this week
no commentswrite comment
1 2 3 4 5
3 more votes to show rating
add to favorites
×
Save as Personal and add changes to this tab that will be seen only by you. Learn more ›
×
You can save this tab as Personal to edit and correct it or add notes. All changes will be seen only by you. Learn more »
launch autoscroll
font size
0
reset
how to read this tab
guitar tuner
edit
Autoscroll
slow
fast
+/-
esc
set tempo
stop
Guitarra orginal: Canción de dos por tres
-----------------------------------------------------------

...volver nunca más...
...no quiero olvidarme de hablar...

E-------------------------------/
B--12---------------12----------/
G--9h10p9--x--x--x--9h10p9------/
D-------------------------------/
A-------------------------------/
E-------------------------------/

Las pálidas figuras...

E-------2------/
B------3-------/
G-----0--------/
D----0---------/
A---x----------/
E--3-----------/

..repitiendo las agonías del pasado...
..el tiempo ya nos ha vuelto desconfiados...

E----0----------0----------1~----/
B--0-0----5--4---0--------2------/
G----0----x--x----x------2-------/
D----2----4--4-----2-------------/
A----3----2--2------2------------/
E--------------------0-----------/

Solo

E---------------------------------------------------------/
B----3-5-7b8r7--7b8r7--7b8r7-7--3h5p3~--------------------/
G--2------------------------------------------------------/
D---------------------------------------------------------/
A---------------------------------------------------------/
E---------------------------------------------------------/

E---------------------------------------------------------/
B------------10b12r10-8-7-7-8-7-5~-/-7-/-5~---------------/
G---------11----------------------------------------------/
D--(9)/12-------------------------------------------------/
A---------------------------------------------------------/
E---------------------------------------------------------/

E----------17---------------------------------------------/
B--17/19~-----19-17~/---17--15-14-15/---------------------/
G--x----------------------------------11-14---------------/
D---------------------------------------------------------/
A---------------------------------------------------------/
E---------------------------------------------------------/

E------------------------------|--------------------------/
B--(10)--12-10----10-----------|--------------------------/
G--------------12----12~/11-9--|----11h12p11h12p11h12p----/
D------------------------------|--------------------------/
A------------------------------|------------2x------------/
E------------------------------|--------------------------/

E-----------------10-10------10~------14--17-14----13~----/
B------------8/10-10-10-10~---------------------15--------/
G--(p)11/7~--9/11-------11~-------------------------------/
D---------------------------------------------------------/
A---------------------------------------------------------/
E---------------------------------------------------------/

E--12-12/--12-12p10-12b14---------------10~---------------/
B-------------------------15(p14)p12-10------9b10--9b10~--/
G---------------------------------------------------------/
D---------------------------------------------------------/
A---------------------------------------------------------/
E---------------------------------------------------------/

E-------10-10-----------10-------------------10------10---------/
B--9b10-------10p9-9b10-------------------10--------------------/
G--------------------------12b13-13r12-11-------9b11----b11-11~-/
D---------------------------------------------------------------/
A---------------------------------------------------------------/
E---------------------------------------------------------------/

Final

E--2--/
B--3--/
G--2--/
D--0--/
A-----/
E-----/

"                                         "
  No es la misma canción de dos por tres,
  las cosas ya no son como las ves.

--------------------------------------------------------

Uno de los solos de guitarra más emotivos que he oído.

SNM
Suggest correction
Creating personal tab
Creating personal tab
You can edit any tab online and save it as your Personal.

You can edit, replace or remove any tab part or add personal notes – all changes will be seen only by you.

Personal tabs can be accessed anytime from any device, even offline.
Learn more »
Give kudos to tab author, rate the tab!
1 2 3 4 5
comments
print report bad tab
guest
Wanna post a correction for this tab? Suggest correction