Oops, an error
Loading. Please wait.

Demoliendo Hoteles bass

version 1
version 1

Whole song

Interactive

247 views 3 this week
no commentswrite comment
1 2 3 4 5
3 more votes to show rating
add to favorites
×
Save as Personal and add changes to this tab that will be seen only by you. Learn more ›
×
You can save this tab as Personal to edit and correct it or add notes. All changes will be seen only by you. Learn more »
launch autoscroll
font size
0
reset
guitar tuner
edit
Autoscroll
slow
fast
+/-
esc
set tempo
stop
QUE TAL A TOD@S LES QUIERO COMPARTIR

EL BAJO DE UNA SUPER CANCION DEL
MAESTRO CHARLY GARCIA, Y SE LA
QUIERO DEDICAR A UNA PERSONA SUPER ESPECIAL
CON LA QUE COMPARTO MUCHO EN GUSTOS MUSICALES,
Y EN VARIAS COSAS, ESTA TABLATURA ES PARA TI,
QUE CANTAS HERMOSO, Y ERES UNA
PERSONA COMO DIRIA ¡FUF! HERMOSA
TQM VERONICA CELY PARA TI DEMOLIENDO HOTELES:

ESTA PARTE VA EN EL INTRO Y LOS
VERSOS, UDS. PUEDEN HACER VARIACIONES
 EN ?C? MAYOR PARA QUE NO SUENE MONOTONO SINO ASI SUENA BIEN IGUAL:

G|--------------------------------|--------------------------|
D|--------------------------------|--------------------------|
A|--0--0--1--1--2--3--3--3--3--3--|--0--0--1--1--2--3--3--3--|
E|--------------------------------|--------------------------|

--------------------------|--------------------------|
--------------------------|--------------------------|
--3--3--0--0--1--1--2--3--|--3--3--3--3--0--0--1--1--|
--------------------------|--------------------------|

--------------------------|--------------------------|
--------------------------|--------------------------|
--2--3--3--3--3--3--0--0--|--1--1--2--3--3--3--3--3--|
--------------------------|--------------------------|

ESTO ES PARA EL CORO, SUENA SUPER BIEN:
--------------------------|--------------------------|
--------------------------|--3--------5--------------|
--1--1--------3--3--5--3--|-----5--3-----3--1--1-----|
--------1--1--------------|-----------------------1--|

--------------------------|------------------------|
--------------------------|------------------------|
-----3--3--5--5--7--7--8--|--8--10--10--8--8--7----|
--1-----------------------|------------------------|

BUENO EN LA CANCION EN VIVO HAY
UNA PARTE QUE SE QUEDA LA GUITARRA AL FONDO
 Y EL BAJO HACE ESTO CON TAPPING EN LAS 8VAS,
ES UN PEQUE SOLO QUE SUENA BIEN:
-----5-----5--3--5--------|------------------------------|
--------------------5--3--|-----10-----10--8---------11--|
--3-----3-----------------|--3----------------10---------|
--------------------------|---------8-------------9------|

----------------------------|--------------------------------
--8-------------------------|--------------------------------
-----3--3?3/15--15--15--15--|--15--14--13--15--14--13--15--14
----------------------------|--------------------------------

---------------------------|-------------------||
---------------------------|-------------------||
--13--3--3--0--0--1--1--2--|--3----------------||
---------------------------|-------------------||
Suggest correction
Creating personal tab
Creating personal tab
You can edit any tab online and save it as your Personal.

You can edit, replace or remove any tab part or add personal notes – all changes will be seen only by you.

Personal tabs can be accessed anytime from any device, even offline.
Learn more »
Give kudos to tab author, rate the tab!
1 2 3 4 5
comments
print report bad tab
guest
Wanna post a correction for this tab? Suggest correction