Oops, an error
Loading. Please wait.

Demoliendo Hoteles tab

version 1
version 1

Whole song

Interactive

272 views 6 this week
no commentswrite comment
1 2 3 4 5
3 more votes to show rating
add to favorites
×
Save as Personal and add changes to this tab that will be seen only by you. Learn more ›
×
You can save this tab as Personal to edit and correct it or add notes. All changes will be seen only by you. Learn more »
launch autoscroll
font size
0
reset
how to read this tab
guitar tuner
backing track
0:00
0:00
edit
Autoscroll
slow
fast
+/-
esc
set tempo
stop
Solo de guitarra: Demoliendo Hoteles
Carlos Alberto García López ("El Negro")
El Concierto Subacuático
2010
------------------------------------

(...pegan carteles)

El solo empieza después de un [fa / sol / la]

E--------------------------------------------------------------/
B--------------------------------------------------------------/
G--------------------------------------------------------------/
D----3----/----5----/----7~~-----------------------------------/
A--------------------------------------------------------------/
E--------------------------------------------------------------/

"                "
  Boogie-boogie.

Solo

E--------------------------------------------------------------/
B--------------------------------------------------------------/
G--------------------------------------------------------------/
D-----------------------------8----8-10-10^(12--12--12--12)----/
A-----------3~---3-3/6-8-9-10---10-----------------------------/
E--3-6-3-6-----------------------------------------------------/

E------------------------------------|-------------------------/
B------------------13--12^(13.5)^12--|------------13p11--------/
G-------------9/12-------------------|----11^(12)-------h12----/
D--12--8-10------------------------|-------------------------/
A------------------------------------|-----------|6x|----------/
E------------------------------------|-------------------------/

E--------------------------------------------------------------/
B------13-11-13-p11----11-15^(16.5^16.5^16.5)15p13-15----13~~--/
G--/12--------------12--------------------------------14-------/
D--------------------------------------------------------------/
A--------------------------------------------------------------/
E--------------------------------------------------------------/

E-----------------------------------------|--------------------/
B------13----17^(19)17p15-----------------|------------13-13---/
G--/12----12---------------15^(17-17-17)--|----11^(12)---------/
D-----------------------------------------|---[11^(12)]--------/
A-----------------------------------------|--------|6x|--------/
E-----------------------------------------|--------------------/

E--------------------------------------------------------------/
B--------------------------------------------------------------/
G--11^(12)-11^(12)-12^^^(14)^^^12-10-10-8~~~~~-----------------/
D--------------------------------------------------------------/
A--------------------------------------------------------------/
E--------------------------------------------------------------/

Fin del solo

------------------------------------

Salida y coro final                    |  Bb   F    C      Dm

E--------------------------------------|--x----x----------[1]--/
B-----------------------.--.--.--.-----|--3----1----1------3---/
G------5-8~---5~------5-8--8--8--8-5~--|--3----2----0------2---/
D--5-8------------5-8------------------|--3----3----2------0---/
A--------------------------------------|--1----3----3-----[0]--/
E-----------------|4x|-----------------|--x----x----------[1]--/

------------------------------------

Símbolos y demás cosas raras

a^(b b)  = Hacer un bend desde "a" hasta "b" y
           mantenerlo al seguir tocando

a^(b^b)  = Hacer un bend desde "a" hasta "b" y luego
           release

a      = Armónico
[a]      = Notas opcionales
|ax|     = Veces que se repite un 'compás'

.
a         = Stacatto: Nota 'cortada'
a^(b.5)   = Hacer un bend mas alto que el traste b y menos
            que b+1 (o sea a la mitad)

a^^^(b)   = Bend muy largo (lento)

------------------------------------

Comentarios

En las partes que se toca muy rápido anoté cómo lo hago yo, pero
no necesariamente tiene que ser así; pueden variar la forma de
ejecutarlas según se les haga más fácil.

Según yo, toda la tab esta perfecta, pero si ven algún error ó
tienen una duda solo avisen.

SNM

            
            
Suggest correction
Creating personal tab
Creating personal tab
You can edit any tab online and save it as your Personal.

You can edit, replace or remove any tab part or add personal notes – all changes will be seen only by you.

Personal tabs can be accessed anytime from any device, even offline.
Learn more »
Give kudos to tab author, rate the tab!
1 2 3 4 5
comments
print report bad tab
guest
Wanna post a correction for this tab? Suggest correction