Oops, an error
Loading. Please wait.

El Amor Espera tab

version 1
version 1

Whole song

Interactive

48 views 3 this week
no commentswrite comment
1 2 3 4 5
3 more votes to show rating
add to favorites
×
Save as Personal and add changes to this tab that will be seen only by you. Learn more ›
×
You can save this tab as Personal to edit and correct it or add notes. All changes will be seen only by you. Learn more »
launch autoscroll
font size
0
reset
how to read this tab
guitar tuner
edit
Autoscroll
slow
fast
+/-
esc
set tempo
stop
Guitarras originales: El amor espera

Intro-A (Dsus4-D)

Guitarra 1 y 2
E--3-3-3-3-2-3-2-3-2-3-2-3-2-3-2-3-2-3-2-3-2-3-3-2h3p2---------/
B------------------------------------------------------3~------/
G--------------------------------------------------------------/
D---------------------------|x2|-------------------------------/
A--------------------------------------------------------------/
E--------------------------------------------------------------/

Guitarra 1 y 2
E--3--3--2-3-2-3-2-3-2-3-2-3-2-3-2-3-2-3-2-3-3-2h3p2-----------/
B----------------------------------------------------3~--------/
G--------------------------------------------------------------/
D---------------------------|x2|-------------------------------/
A--------------------------------------------------------------/
E--------------------------------------------------------------/

Intro-B (G5 F5 D5)

Guitarra 1
E--------------------------------------------------------------/
B--------------------------------------------------------------/
G--------------------------------------------------------------/
D--------------------------------------------------------------/
A--17--15--12~----17--15--12~----17--15--12~----5~---7~~~/0----/
E--15--13--10~----15--13--10~----15--13--10~----3~---5~~~/0----/
                                                               /
Guitarra 2                                                     /
E--------------------------------------------------------------/
B--------------------------------------------------------------/
G--------------------------------------------------------------/
D--------------------------------------------------------------/
A--5---3---5~-----5---3---5~-----5---3---5~-----5~---7~~~/0----/
E--3---1---5~-----3---1---5~-----3---1---5~-----3~---5~~~/0----/


Versos (P.M.-Dsus4)

Yo me hago el muerto para ver quien me llora,
para ver quien me ha usado.

Guitarra 1
E--------------------------------------------------------------/
B--------------------------------------------------------------/
G--7-----7-----7~~~/0------------------------------------------/
D--0-x-x-0-x-x-0-----------------------------------------------/
A--------------------------------------------------------------/
E--------------------------------------------------------------/

Yo me hago el muerto para ver quien me extraña,
para ver quien me llora.

Guitarra 2
E----3-2-------------------------------------------------------/
B--------3-----------------------------------------------------/
G--2-------2~--------------------------------------------------/
D----------0~--------------------------------------------------/
A--------------------------------------------------------------/
E--------------------------------------------------------------/

Y si el teléfono no suena en el medio de una reunión privada.

Guitarra 1 (Guitarra 2 hace lo del primer verso)
E--------------------------------------------------------------/
B--------------------------------------------------------------/
G--5--5--5-/-7--7~---------------------------------------------/
D--5--5--5-/-7--7~---------------------------------------------/
A--------------------------------------------------------------/
E--------------------------------------------------------------/

Es que la chica esta cansada de escuchar siempre las mismas
pelotudas pavadas.

Guitarra 2
E--3--3--2h3p2-------------------------------------------------/
B--------------3~----------------------------------------------/
G--------------------------------------------------------------/
D--------------------------------------------------------------/
A--------------------------------------------------------------/
E--------------------------------------------------------------/

G5        F5   D5
   Y el amor espera,

G5         F5   D5
   Y ya es primavera,

G5       F5   D5
   Y la mesa cera,

G5           A5
   Y la vela nada.

Guitarra 1
E-----------------------------------/
B--------2--3--3--2h3p2---------2---/
G--2--4-----------------4--2--4-----/
D-----------------------------------/
A-----------------------------------/
E-----------------------------------/

Guitarra 1
E------------------------------------------------------------/
B--------2---3--3--2h3p2-------------3-----3-----------------/
G--2--4------------------4---2-----2-----2-------------------/
D--------------------------------5-----4-----2---------------/
A----------------------------------------------5--4--2-------/
E--------------------------------------------------------5~--/
                                                             /
Guitarra 2                                                   /
E------------------------------------------------------------/
B--------15-16-16-15h16p15-----------------------------------/
G--14-16------------------16-14------------------------------/
D--------------------------------17----16---14---------------/
A----------------------------------------------17-16-14------/
E--------------------------------------------------------17~-/

(teclados)

Guitarra 1
E--------------------------------------------15~~~~~~/
B--------15-16-16-15h16p15----------------15~~~~~~~~~/
G--14-16------------------16-14--/12---12~~~~~~~~~~~~/
D----------------------------------------------------/
A----------------------------------------------------/
E----------------------------------------------------/
                                                     /
Guitarra 2                                           /
E----------------------------------------------------/
B--------2--3--3--2h3p2------------------------------/
G--2--4-------------------4--2-----------------------/
D-------------------------------5/12~~~~~~~~~/0------/
A----------------------------------------------------/
E----------------------------------------------------/

('La orquesta toca y la gente baila')

Guitarra 1
E------3-----5-----5-----7-----7---------9~--------------------/
B----5-----6-----7-----8-----9-----10-12-----------------------/
G--5-----5-----7-----7-----9-----9-----------------------------/
D--------------------------------------------------------------/
A--------------------------------------------------------------/
E--------------------------------------------------------------/
                                                               /
Guitarra 2                                                     /
E--------------------------------------------------------------/
B------------------------------------------------------3~------/
G------------2-----------4---------------6~-----------2~~------/
D----2-5---3-----4-7---5-----6-9---7--9--------------0~~~------/
A--3-----3-----5-----5-----7-----7-----------------------------/
E--------------------------------------------------------------/

(Charly toca el piano)

Guitarra 1
E---------10~-------------------------------------7~------7-9~-/
B--7-8-10-----7-8-10--------7------7-8-10~-7-8-10----8-10------/
G--------------------7~-7-9---9~-9-----------------------------/
D--------------------------------------------------------------/
A--------------------------------------------------------------/
E--------------------------------------------------------------/

E-----7-9-10~-7-9-10/12---14/15/14-10--------------------------/
B--10---------------------------------10-8h10p8----------------/
G-----------------------------------------------7~-------------/
D--------------------------------------------------------------/
A--------------------------------------------------------------/
E--------------------------------------------------------------/

Pero si...  si...  mundo... puedo... vos...
E--------------------------------------------3p2~--------------/
B----3~-------3~------2~-------2~-------3~---------------------/
G---2~~------0~~-----2~~------0~~------2~~---------------------/
D--0~~~-----0~~~----2~~~-----2~~~-----0~~~---------------------/
A--------------------------------------------------------------/
E--------------------------------------------------------------/

Guitarra 1
E--2p(x)--3-3-2-2-0-0---------3-3-2-2-0-0----------2~----------/
B---------------------3-3-2-0-------------3-3-2-0--3~----------/
G--------------------------------------------------2~----------/
D--------------------------------------------------0~----------/
A--------------------------------------------------------------/
E--------------------------------------------------------------/
                                                               /
Guitarra 2                                                     /
E--2p(x)--3-3-2-2-0-0---------3-3-2-2-0-0----------------------/
B---------------------3-3-2-0-------------3-3-2-0--3~----------/
G--------------------------------------------------2~----------/
D--------------------------------------------------0~----------/
A--------------------------------------------------------------/
E--------------------------------------------------------------/

Estos son los acordes de lo de arriba, por si prefieren hacer
punteos, ya que esta parte es muy tranquila.

       D
Somos como peces que estan fuera del mar,
        G
fuimos tantas veces hacia el mismo lugar,
        A                     A7               D
todo el mundo quiere, todo el mundo quiere olvidar.

(En esta parte las guitarras no estan sincronizadas asi que
escuchen el CD para saber como van los tiempos)

Guitarra 1
E---------10~-------------------------------------7~------7-9~-/
B--7-8-10-----7-8-10--------7------7-8-10~-7-8-10----8-10------/
G--------------------7~-7-9---9~-9-----------------------------/
D--------------------------------------------------------------/
A--------------------------------------------------------------/
E--------------------------------------------------------------/
                                                               /
Guitarra 2                                                     /
E--------------------------------------------------------------/
B--3------2----------------------------------------------------/
G-------------4------2-----------------------------------------/
D-------------------------5-4-5-------4---2--------------------/
A-----------------------------------------------5-----4-----2--/
E--------------------------------------------------------------/

Guitarra 1
E-----7-9-10~-7-9-10/12---14/15/14-10~-------------------------/
B--10----------------------------------------------------------/
G--------------------------------------------------------------/
D--------------------------------------------------------------/
A--------------------------------------------------------------/
E--------------------------------------------------------------/
                                                               /
Guitarra 2                                                     /
E--------------------------------------------------------------/
B--------------------------------------------------------------/
G--------------------------------------------------------------/
D--------------------------------------------------------------/
A--4-----2--------------------------5~-------------------------/
E--------------5------3---2---0-----5~-------------------------/

Guitarra 1
E--------------------------------------------------------------/
B--3--2------------------------------------------------3-------/
G--------4--2------------------------------------------2-------/
D-------------5--4--5--4--2----------------------------0-------/
A----------------------------5--4--2--4--2------------(0)------/
E------------------------------------------5--3--2--0----------/
                                                               /
Guitarra 2                                                     /
E--------------------------------------------------------------/
B--15-14-------------------------------------------------------/
G-------16-14--------------------------------------------------/
D------------17--16-17-16-14-----------------------------------/
A---------------------------17-16-14-<12>-14------------12-----/
E------------------------------------------17-15-14-12--10-----/

       D
Somos como peces que estan fuera del mar,
        G
fuimos tantas veces hacia el mismo lugar,
        A                     A7               D
todo el mundo quiere, todo el mundo quiere olvidar.

Como intro
E--3-3-3-3-2-3-2-3-2-3-2-3-2-3-2-3-2-3-2-3-2-3-3-2h3p2---------/
B------------------------------------------------------3~------/
G--------------------------------------------------------------/
D---------------------------|x2|-------------------------------/
A--------------------------------------------------------------/
E--------------------------------------------------------------/

Guitarra 1 y 2
E--3--3--2-3-2-3-2-3-2-3-2-3-2-3-2-3-2-3-2-3-3-2h3p2-----------/
B----------------------------------------------------3~--------/
G--------------------------------------------------------------/
D---------------------------|x2|-------------------------------/
A--------------------------------------------------------------/
E--------------------------------------------------------------/

Guitarra 1 y 2

 A-5/12/5~-/

 D    -    G    -    A    -    A7   -   D

Guitarra 1
E---------10~-------------------------------------7~------7-9~-/
B--7-8-10-----7-8-10--------7------7-8-10~-7-8-10----8-10------/
G--------------------7~-7-9---9~-9-----------------------------/
D--------------------------------------------------------------/
A--------------------------------------------------------------/
E--------------------------------------------------------------/

E-----7-9-10~-7-9-10/12---14/15/14-10 <-- Pueden hacer un A.H.-/
B--10----------------------------------------------------------/
G--------------------------------------------------------------/
D--------------------------------------------------------------/
A--------------------------------------------------------------/
E--------------------------------------------------------------/

('Black Sabath')

Esta parte requiere que la 6ta cuerda esté afinada en D, pero
también pueden hacer un slide-off ó tocar D una octava arriba.

(de cualquier forma esto no se nota con teclados y bajo encima)

Guitarra 1 y 2
E--------------------------------------------------------------/
B------------------------------|x2|----------------------------/
G--------------------------------------------------------------/
D---------3-5-3~-------------3~--------------------------------/
A--5--5-5--------5-5-5-5-3------5-3------(5)-------------------/
E--------------------------5--------5-3/-----------------------/

Como el segundo intro:

G5 F5 D5

Guitarra 1
E--------------------------------------------------------------/
B--------------------------------------------------------------/
G--------------------------------------------------------------/
D--------------------------------------------------------------/
A--17--15--12~----17--15--12~----17--15--12~----5~---7~~~/0----/
E--15--13--10~----15--13--10~----15--13--10~----3~---5~~~/0----/
                                                               /
Guitarra 2                                                     /
E--------------------------------------------------------------/
B--------------------------------------------------------------/
G--------------------------------------------------------------/
D--------------------------------------------------------------/
A--5---3---5~-----5---3---5~-----5---3---5~-----5~---7~~~/0----/
E--3---1---5~-----3---1---5~-----3---1---5~-----3~---5~~~/0----/

Guitarra 1
E-----------------------------------/
B--------2--3--3--2h3p2---------2---/
G--2--4-----------------4--2--4-----/
D-----------------------------------/
A-----------------------------------/
E-----------------------------------/

Guitarra 1
E------------------------------------------------------------/
B--------2---3--3--2h3p2-------------3-----3-----------------/
G--2--4------------------4---2-----2-----2-------------------/
D--------------------------------5-----4-----2---------------/
A----------------------------------------------5--4--2-------/
E--------------------------------------------------------5~--/
                                                             /
Guitarra 2                                                   /
E------------------------------------------------------------/
B--------15-16-16-15h16p15-----------------------------------/
G--14-16------------------16-14------------------------------/
D--------------------------------17----16---14---------------/
A----------------------------------------------17-16-14------/
E--------------------------------------------------------17~-/

(teclados)

Guitarra 1
E--------------------------------------------/
B--------15-16-16-15h16p15-------------------/
G--14-16------------------16-14--12~~~~~~~~~~/
D--------------------------------------------/
A--------------------------------------------/
E--------------------------------------------/

Guitarra 1
E------3-----5-----5-----7-----7---------9~--------------------/
B----5-----6-----7-----8-----9-----10-12-----------------------/
G--5-----5-----7-----7-----9-----9-----------------------------/
D--------------------------------------------------------------/
A--------------------------------------------------------------/
E--------------------------------------------------------------/
                                                               /
Guitarra 2                                                     /
E--------------------------------------------------------------/
B--------------------------------------------------------------/
G------------2-----------4---------------6~--------------------/
D----2-5---3-----4-7---5-----6-9---7--9------------------------/
A--3-----3-----5-----5-----7-----7-----------------------------/
E--------------------------------------------------------------/

--------------------------------------------------------

Escogí la versión del Subacuático y no la de Influencia porque en
esta última hay demasiada distorsión y no se perciben los arreglos,
en cambio ésta es más limpia.

Uno de los mejores temas de Charly, rock puro.

--------------------------------------------------------

Próximamente los teclados (incluyendo lo que toca Charly en el piano)
y quizá el bajo.

SNM
Suggest correction
Creating personal tab
Creating personal tab
You can edit any tab online and save it as your Personal.

You can edit, replace or remove any tab part or add personal notes – all changes will be seen only by you.

Personal tabs can be accessed anytime from any device, even offline.
Learn more »
Give kudos to tab author, rate the tab!
1 2 3 4 5
comments
print report bad tab
guest
Wanna post a correction for this tab? Suggest correction