Oops, an error
Loading. Please wait.

El Fantasma De Canterville tab

version 2
version 2

Whole song

40 views 3 this week
no commentswrite comment
1 2 3 4 5
3 more votes to show rating
add to favorites
×
Save as Personal and add changes to this tab that will be seen only by you. Learn more ›
×
You can save this tab as Personal to edit and correct it or add notes. All changes will be seen only by you. Learn more »
launch autoscroll
font size
0
reset
how to read this tab
guitar tuner
edit
Autoscroll
slow
fast
+/-
esc
set tempo
stop
Intro-Bajo

----------------------------------
----------------------------------
----------------------------------
-----------------5--------5h3-5h3-
------------3---------------------
---3---6--------------------------


----------------------------------
----------------------------------
----------------------------------
-----------------5----------------
------------3---------------------
---3---6--------------------------

Riff 1
----------------------------------
--------------------------5h3-5h3-
--------------------------5h3-5h3-
-----------------5--------5h3-5h3-
------------3---------------------
---3---6--------------------------

----------------------------------
----------------------------------
----------------------------------
-----------------5----------------
------------3---------------------
---3---6--------------------------

 SOL
 Yo era un hombre bueno
DO                           SOL(Riff 1)
si hay alguien bueno en esta ciudad(lugar)
SOL
Pague todas mis deudas y
DO                 SOL(Riff 1)
mi oportunidad de amar
RE
sin embargo estoy tirado
LAm                 MIm-DO
y nadie se acuerda de mi
        SOL
paso a traves de la gente
            RE    DO      SOL
como el fantasma de Canterville

A) Me han ofendido mucho
y nadie dio una explicacion
Ay! si pudiera odiarlos (matarlos)
lo haria sin ningun temor
pero siempre fui un tonto
que creyo en la humanidad (legalidad)
ahora que estoy afuera
ya se lo que es la libertad

A) Ahora que puedo amarte
yo voy a amarte de verdad
mientras me quede aire
calor nunca te va a faltar
y jamas volvere a fijarme
en la cara de los demas
esa careta idota
 RE        DO       SOL-MI
que tira y tira para atras


B)
 He muerto muchas veces
rodando sobre (acrivillado en) la ciudad
pero es mejor ser muerto
que un numero que viene y va
y en mi tumba tengo discos
y cosas que no me hacen mal
 despues de muerto, nena
vos me vendras a visitar


Esta es la versión del tema que aparece en el disco música del alma.
Los acordes Sol y Do se tocan con cejilla


Negrogreen
Suggest correction
Creating personal tab
Creating personal tab
You can edit any tab online and save it as your Personal.

You can edit, replace or remove any tab part or add personal notes – all changes will be seen only by you.

Personal tabs can be accessed anytime from any device, even offline.
Learn more »
Give kudos to tab author, rate the tab!
1 2 3 4 5
comments
print report bad tab
guest
Wanna post a correction for this tab? Suggest correction