Oops, an error
Loading. Please wait.

Himno Nacional Argentino tab

version 2
version 2

Whole song

Interactive

33 views 1 this week
no commentswrite comment
1 2 3 4 5
3 more votes to show rating
add to favorites
×
Save as Personal and add changes to this tab that will be seen only by you. Learn more ›
×
You can save this tab as Personal to edit and correct it or add notes. All changes will be seen only by you. Learn more »
launch autoscroll
font size
0
reset
how to read this tab
guitar tuner
edit
Autoscroll
slow
fast
+/-
esc
set tempo
stop
1------------------------------------------------------------------------
2--------------------------------------------------------2-0-----2-0-----
3-----------------------------------------------------------2-2-2---2-2-2
4------2-0---------------4-2-1-0-2---0---0---0---0---0-------------------
5-0-4-0---2-----0-2-0-4-4-------2-4-0-4-2-4-2-4-2-4-2-4-2----------------
6----------4-4-4---------------------------------------------------------

1----------------------------------------------------------------0-0-0---
2-3-2-0-0-0-3-2-0-0-0-5-3-2-2-2-5-3-2-2-2-7-5-3-3-3-9-7-5-5-5-10-2----3-0
3----------------------------------------------------------------2-------
4----------------------------------------------------------------2-------
5----------------------------------------------------------------0-------
6------------------------------------------------------------------------

1---0-0-0--------------0-
2---2----3-0--2-2-2----2-
3-1-2-------1--2-2-2-2-2-
4---2------------------2-
5---0------------------0-
6------------------------
         A          E       A
 Oíd, mortales, el grito sagrado:
  A7    D         E   E7    A
 ¡Libertad, libertad, libertad!
          A      B7       E    E7
 Oíd el ruido de rotas cadenas,
          D        B7          E  E7
 Ved en trono a la noble igualdad.
        Am      Dm         F E
 Ya su trono dignísimo abrieron
  E7     Am Am/G   F B7       E  E7
 las provin-cias uni-das del sud,
       Am          E        Am     E
 y los libres del mundo responden:
          Am          E     Am
 al gran pueblo argentino salud,
Am/G       F         B7      E  E7
 Al gran pueblo argentino salud.
        A         F#       Bm    Dm
 Y los libres del mundo responden:
           A          E      A
 Al gran pueblo argentino salud.

1-------------------------------------------------------------------
2-2-0-----2-0-----3-2-0-0-0-3-2-0-0-0-5-3-2-2-2-5-3-2-2-2-7-5-3-3-3-
3----2-2-2---2-2-2--------------------------------------------------
4-------------------------------------------------------------------
5-------------------------------------------------------------------
6-------------------------------------------------------------------

1--------------0------0-0-0------------0
2-9-7-5-5-5-10-2-3-0--2----3-0--2-2-2--2
3--------------2----1-2-------1--2-2-2-2
4--------------2------2----------------2
5--------------0------0----------------0
6---------------------------------------


        A            E      A
 SEAN ETERNOS LOS LAURELES
        A     E     A
 QUE SUPIMOS CONSEGUIR,
 A             E      A
 SEAN ETERNOS LOS LAURELES
       D     B7    E  E7
 QUE SUPIMOS CONSEGUIR...
     Bm         E       A  B7  E
 CORONADOS DE GLORIA VIVA-AAAA-AMOS,
      A          E     A
 O JUREMOS CON GLORIA MORIR.
 D    A          E     A
 O JUREMOS CON GLORIA MORIR.
 D    A          E     A
 O JUREMOS CON GLORIA MORIR.
 D    A          E     A
 O JUREMOS CON GLORIA MORIR
A A A A


mi e-mail es:carlosrugby@

            
            
Suggest correction
Creating personal tab
Creating personal tab
You can edit any tab online and save it as your Personal.

You can edit, replace or remove any tab part or add personal notes – all changes will be seen only by you.

Personal tabs can be accessed anytime from any device, even offline.
Learn more »
Give kudos to tab author, rate the tab!
1 2 3 4 5
comments
print report bad tab
guest
Wanna post a correction for this tab? Suggest correction