Oops, an error
Loading. Please wait.

Me Siento Mucho Mejor bass

version 2
version 2

Whole song

161 views 3 this week
no commentswrite comment
1 2 3 4 5
3 more votes to show rating
add to favorites
×
Save as Personal and add changes to this tab that will be seen only by you. Learn more ›
×
You can save this tab as Personal to edit and correct it or add notes. All changes will be seen only by you. Learn more »
launch autoscroll
font size
0
reset
guitar tuner
edit
Autoscroll
slow
fast
+/-
esc
set tempo
stop
Estuve viendo los otros 2 tabs de bajo de esta canción que están en la pagina.
Y noté que tienen un par de errores y no están completos. 
Este tab es continuo, o sea, no tienen que 'volver arriba para tocar el verso' 
toda la canción esta escrita y completa.

Intro

G-------------
D-------------
A---77s0------
E-------------

G-------------------------------------
D--7-7-----6-7--7-----7--7-----6-7----
A------7-9--------7-7------7-9-----7--
E-------------------------------------

Verso 1° Estrofa: 'No razonar, desaparecer...'

G---------------------------------------
D-7-7-----6-7-7-----7-7-----6-7-7---7---
A-----7-9-------7-7-----7-9-------7-----
E---------------------------------------

'...estar, te echaste a correr...'

G----------------------------------
D-6-66-6-66------------------------
A-----------7-9-7----0-------------
E-----------------10---7-7-7h5-7---

'...mi, no tiene perdón...'

G----------------------------------
D-7-7-----6-7----------------------
A-----7-9---------4-5-55-4---------
E-------------5-7----------7-77----

'..siento mucho más fuerte...'

G----------------------------
D---------------4-7-4--------
A------7-77-5-5--------------
E-5-55-----------------------

G--------------------------------------------
D-5555555-7-7-----6-7--7-----7--7-----6-7----
A-------------7-9--------7-7------7-9-----7--
E--------------------------------------------

2° Estrofa: '...atras, me hiciste sentir...'

G---------------------------------------
D-7-7-----6-7-7-----7-7-----6-7-7---7---
A-----7-9-------7-7-----7-9-------7-----
E---------------------------------------

'...que nuestro amor era más...'

G-----------------------------------
D-6-66-6-66-------------------------
A-----------7-9-7----0--------------
E-----------------10---7-7-7-9-10-7-

'...no se más quien soy...'

G----------------------------------
D-7-7-----6-7----------------------
A-----7-9---------4-5-55-4---------
E-------------5-7----------7-77----

'..siento mucho más fuerte...'

G----------------------------
D---------------4-7-4--------
A------7-77-5-5--------------
E-5-55-----------------------

G--------------------------------------------
D-5555555-7-7-----6-7--7-----7--7-----6-7----
A-------------7-9--------7-7------7-9-----7--
E--------------------------------------------

Solo de teclado:

G------------------------------
D--2h4-44-2-4-2-4s9-99-7-9-7-9-
A------------------------------
E------------------------------

G----------------------------------
D-7-7-----6-7----------------------
A-----7-9---------4-5-55-4---------
E-------------5-7----------7-77----

G-------------------
D-------------------
A------7-77-5-55----
E-5-55--------------

G--------------------------------------------
D-5555555-7-7-----6-7--7-----7--7-----6-7----
A-------------7-9--------7-7------7-9-----7--
E--------------------------------------------

'...(ha)cer, no sé que decir...'

G---------------------------------------
D-7-7-----6-7-7-----7-7-----6-7-7---7---
A-----7-9-------7-7-----7-9-------7-----
E---------------------------------------

'...estar, te echaste a reir...' 

G-------------------------------
D-6-66-6-66---------------------
A-----------9--7-----------------
E----------------9-7-9-10-7------

'...mi, no tiene perdón...'

G----------------------------------
D-7-7-----6-7--7-------------------
A-----7-9--------0--5-55-4---------
E--------------------------7-77----

'..siento mucho más fuerte...'

G--------------------------------
D-----------------4-7-4--5555555-
A------5h7-77-5-5----------------
E-5-55---------------------------

'..siento mucho más fuerte...'

G-----------------------
D---------------5555555-
A------7-77-5-5---------
E-5-55------------------

'...sin tu amor...'

G----------------------------
D-7-7----7-5-5---5-----------
A-----77-------5-------------
E----------------------------

'...oh sin tu amor...'

G----------------------------
D-7-7----7-5-5---5-----------
A-----77-------5-------------
E----------------------------

Final

G----------------------------
D--7-77--5-55----------------
A--------------------------0-
E--------------2-22--3-33----

G------------
D------------
A---12s0-----
E------------

Escribanme si tienen dudas....hasta la proxima!!

            
            
Suggest correction
Creating personal tab
Creating personal tab
You can edit any tab online and save it as your Personal.

You can edit, replace or remove any tab part or add personal notes – all changes will be seen only by you.

Personal tabs can be accessed anytime from any device, even offline.
Learn more »
Give kudos to tab author, rate the tab!
1 2 3 4 5
comments
print report bad tab
guest
Wanna post a correction for this tab? Suggest correction