Oops, an error
Loading. Please wait.

Me Siento Mucho Mejor tab

123 views 1 this week
no commentswrite comment
1 2 3 4 5
3 more votes to show rating
add to favorites
×
Save as Personal and add changes to this tab that will be seen only by you. Learn more ›
×
You can save this tab as Personal to edit and correct it or add notes. All changes will be seen only by you. Learn more »
launch autoscroll
font size
0
reset
how to read this tab
guitar tuner
edit
Autoscroll
slow
fast
+/-
esc
set tempo
stop
Intro:                                   agus_corty@
----------------------------------------------------------------
------------------------------------------------organo----------
----------------------------------------------------------------
-----7--7-7--7-7--5--7------------------------------------------
-----7--7-7--7-7--5--7------------------------------------------
--0--5--5-5--5-5--3--5-55-55-55-55-55-55-55-55-55-55-55-55-55-...
organo
---11-9-11-12-11-9-11-----11-9-11-12-11-9-11-----------------
-------------------------------------------------------------
-------------------------------------------------------------
-------------------------------------------------------------
-------------------------------------------------------------
-------------------------------------------------------------

riff 1
------------------------------------------------------
----A-----------------E-------------------------------
------------------------------------------------------
---7-7-------7-7---7-2-2------------------------------
---7-7-------7-7---7-2-2------------------------------
---5-5-0-5-0-5-5---5-0-0------------------------------
   riff1          riff1
No razonar, desaparecer
              F#5
cuando tenías que estar
          B5
te echaste a correr
              RIFF1
lo que hiciste en mi
             D5
no tiene perdón
              A5
y yo se que me siento
           E5
mucho mas fuerte
         D5  G5
sin tu amor.

            RIFF1
Mucho tiempo atrás
            RIFF1
me hiciste sentir
                     F#5
que nuestro amor era mas
                  B5
y de esa forma vivir
                RIIF1
no sé, más quien soy
            D5
de qué te reís
                    A5
y ahora sé que me siento
            E5
mucho mas fuerte
         D5  G5
sin tu amor.

             RIFF1
No sé, qué hacer
            RIFF1
no sé, qué decir
                    F#5
cuando tenías que estar
               B5
te echaste a reír
                RIFF1
lo que hiciste en mi
             D5
no tiene perdón
                    A5
y ahora se que me siento
            E5             D5
mucho mas fuerte sin tu amor.

                 A5
Y yo se que me siento
            E5
mucho mas fuerte
         D5
sin tu amor.

Esta la sake porq no habia ni una como la gente y
desidi compartirla con todos
Me gusta charly y awante la renga jajaja
Agustin corty alta gracia cba
Suggest correction
Creating personal tab
Creating personal tab
You can edit any tab online and save it as your Personal.

You can edit, replace or remove any tab part or add personal notes – all changes will be seen only by you.

Personal tabs can be accessed anytime from any device, even offline.
Learn more »
Give kudos to tab author, rate the tab!
1 2 3 4 5
comments
print report bad tab
guest
Wanna post a correction for this tab? Suggest correction