Oops, an error
Loading. Please wait.

Pasajera En Trance tab

version 3
version 3

Whole song

107 views 1 this week
no commentswrite comment
1 2 3 4 5
3 more votes to show rating
add to favorites
×
Save as Personal and add changes to this tab that will be seen only by you. Learn more ›
×
You can save this tab as Personal to edit and correct it or add notes. All changes will be seen only by you. Learn more »
launch autoscroll
font size
0
reset
how to read this tab
guitar tuner
edit
Autoscroll
slow
fast
+/-
esc
set tempo
stop
Unplugged                        
                                 
INTRO: Teclado adaptado a guitarra

|---------------12----------------------12-------------------|
|-------13--15------13--15------13--15------13--15------13---|
|---14----------------------14----------------------14-------|
|------------------------------------------------------------|
|------------------------------------------------------------|
|------------------------------------------------------------|


|-----------12------------------12-------------------|
|---15--13------13--15------13------15--12-----------|
|-----------------------14------------------14--12---|
|----------------------------------------------------|
|----------------------------------------------------|
|----------------------------------------------------|


|---------------12----------------------12-------------------|
|-------13--15------13--15------13--15------13--15------13---|
|---14----------------------14----------------------14-------|
|------------------------------------------------------------|
|------------------------------------------------------------|
|------------------------------------------------------------|


|-----------12------------------12--15--15---|
|---15--13------13--15------13---------------|
|-----------------------14-------------------|
|--------------------------------------------|
|--------------------------------------------|
|--------------------------------------------|


|----------------------------------------15--15---|
|---13--12--13--12--13--13--12---12--15-----------|
|-------------------------------------------------|
|-------------------------------------------------|
|-------------------------------------------------|
|-------------------------------------------------|


|---13--12--13--12----------15---|
|-------------------13--12-------|
|--------------------------------|
|--------------------------------|
|--------------------------------|
|--------------------------------|


|----------------------------------------15--15--|
|---13--12--13--12--13--13--12---12--15----------|
|------------------------------------------------|
|------------------------------------------------|
|------------------------------------------------|
|------------------------------------------------|


Dm                   F  G
Ella está por embarcar, 
          Dm                     F    G
quizás consiga un pasaje en la borda. 
Dm                   F          G
Ella está por despegar 
        Dm
ella se va-a-a-a
Dm                 F  G
Ella viaja sin pagar 
           Dm                       F    G
el viejo truco de andar por la sombra. 
Dm                    F         G
Ella baila sobre el mar 
        Dm
ella se va. 
D             
Pasajera en trance 
                      G       F
pasajera en tránsito perpetuo 
D             
Pasajera en trance 
                     G          F            
transitando los lugares ciertos. 
D                                    G         F
Un amor real, es cómo dormir y estar despierto 
D                                    G    F
Un amor real es como vivir en aeropuerto.


REPITE LA INTRO Y CONTINUA CON 
EL ARREGLO DE CUERDAS

|---------------------------------------|
|---------------------------------------|
|-------------------------7-------------|
|---------5--7--7--5---9-----9--7-------|
|---8--8---------------------------10---|
|---------------------------------------|

|---------------------------------------------|
|---------------------------------------------|
|---------------------------------------------|
|------------------5----7--5--4-----5--4------|
|---5--5--7--8--8----------------7--------7---|
|---------------------------------------------|

|------------------------------------|
|------------------------------------|
|--------------------------5--7--7---|
|------------------5----7------------|
|---5--5--7--8--8--------------------|
|------------------------------------|

            
            
Suggest correction
Creating personal tab
Creating personal tab
You can edit any tab online and save it as your Personal.

You can edit, replace or remove any tab part or add personal notes – all changes will be seen only by you.

Personal tabs can be accessed anytime from any device, even offline.
Learn more »
Give kudos to tab author, rate the tab!
1 2 3 4 5
comments
print report bad tab
guest
Wanna post a correction for this tab? Suggest correction