Oops, an error
Loading. Please wait.

Pubis Angelical tab

version 2
version 2

Whole song

67 views 3 this week
no commentswrite comment
1 2 3 4 5
2 more votes to show rating
add to favorites
×
Save as Personal and add changes to this tab that will be seen only by you. Learn more ›
×
You can save this tab as Personal to edit and correct it or add notes. All changes will be seen only by you. Learn more »
launch autoscroll
font size
0
reset
how to read this tab
guitar tuner
edit
Autoscroll
slow
fast
+/-
esc
set tempo
stop
Un gran tema de Charly que merece una tablatura completa (y correcta).

Esta versión esta hecha en base al tema original.

---------------------------------------------------------------------
Guitarras originales: Pubis Angelical
Charly García
Pubis Angelical
1982

---------------------------------------------------------------------

Guitarra acústica:

E----------8--8----8/10-8--------------------------------------/
B-----8/10------10--------8/10-8------------8/10-8-------------/
G--10----------------------------10--7-10-7--------10----------/
D--------------------------------------------------------------/
A--------------------------------------------------------------/
E--------------------------------------------------------------/

E--------------------------------------------------------------/
B-------------------8/10-8/10-8------------9-8~----------------/
G--10--6/7-----7-10-------------10--7-10-7------10~------------/
D----------10--------------------------------------------------/
A--------------------------------------------------------------/
E--------------------------------------------------------------/

E----------8--8----8/10-8--------------------------------------/
B-----8/10------10--------8/10-8-------8/10-8/10-8-------------/
G--10----------------------------10--7-------------10----------/
D--------------------------------------------------------------/
A--------------------------------------------------------------/
E--------------------------------------------------------------/

E--------------------------------------------------------------/
B-------------------8/10-8/10-8------------9-8~----------------/
G--10--6/7-----7-10-------------10--7-10-7------10~------------/
D----------10--------------------------------------------------/
A--------------------------------------------------------------/
E--------------------------------------------------------------/

E--11-11-11-11-11-11--10-8--------10-12-----12-13~-------------/
B---------------------------11-10--------10--------------------/
G--------------------------------------------------------------/
D--------------------------------------------------------------/
A--------------------------------------------------------------/
E--------------------------------------------------------------/

E--13-13-13-13-13-13--11-10-------10-12-----12-13~-------------/
B---------------------------11-10--------10--------------------/
G--------------------------------------------------------------/
D--------------------------------------------------------------/
A--------------------------------------------------------------/
E--------------------------------------------------------------/

Guitarra eléctrica:

E------------------------------------------------/
B------------------------------------------------/
G--------5--5---5/7--5---------------------------/
D----5/7------7--------5/7-5----------5/7-5------/
A--8-------------------------8--5-8-5-------8----/
E------------------------------------------------/

E-------------------------------------------------/
B-------------------------------------------------/
G-------------------------------------------------/
D-----------------5/7-7--5----------6~p5----------/
A--8-4/5-----5-8-----------8--5-8-5------8~-------/
E--------8----------------------------------------/

E----------------------------------------------------/
B----------------------------------------------------/
G--------5----5---5/7--5-----------------------------/
D----5/7----7---7--------5/7-5---------5/7-5---------/
A--8---------------------------8-5-8-5-------8~------/
E----------------------------------------------------/

E-------------------------------------------------/
B-------------------------------------------------/
G-------------------------------------------------/
D-----------------5/7-7--5----------6~p5----------/
A--8-4/5-----5-8-----------8--5-8-5------8~-------/
E--------8----------------------------------------/

Escuchen bien esta parte para que no se pierdan:

E-------------------------------------------------/
B-----------------------------10-8----------------/
G--------------------------10------10-------------/
D-----------------10-10/12------------------------/
A--8--8-8-8-10/12---------------------------------/
E-------------------------------------------------/

E--11-11-11-11-11-11--10-8--------10-12-----12-13~-------------/
B---------------------------11-10--------10--------------------/
G--------------------------------------------------------------/
D--------------------------------------------------------------/
A--------------------------------------------------------------/
E--------------------------------------------------------------/

E--13-13-13-13-13-13--11-10-------10-12-----12-13~-------------/
B---------------------------11-10--------10--------------------/
G--------------------------------------------------------------/
D--------------------------------------------------------------/
A--------------------------------------------------------------/
E--------------------------------------------------------------/

-----------------------------------------------------------

Después suenan muy despacio los teclados y suena 3 veces más la
guitarra:
                                          P.M.

E-----------------|------------------|--1-1---------------------/
B--20^(22)-20p18--|--13h15-13--------|--x-x---------------------/
G-----------------|------------------|--------------------------/
D-----------------|-----------15-15--|--------------------------/
A-----------------|------------------|--------------------------/
E-----------------|------------------|--------------------------/

-----------------------------------------------------------

Sin duda un gran tema de Charly.

Dudas, comentarios y sugerencias al correo.

De momento creo que es todo.

SNM

            
            
Suggest correction
Creating personal tab
Creating personal tab
You can edit any tab online and save it as your Personal.

You can edit, replace or remove any tab part or add personal notes – all changes will be seen only by you.

Personal tabs can be accessed anytime from any device, even offline.
Learn more »
Give kudos to tab author, rate the tab!
1 2 3 4 5
comments
print report bad tab
guest
Wanna post a correction for this tab? Suggest correction