Oops, an error
Loading. Please wait.

Rezo Por Vos bass

version 1
version 1

Whole song

Interactive

150 views 1 this week
no commentswrite comment
1 2 3 4 5
3 more votes to show rating
add to favorites
×
Save as Personal and add changes to this tab that will be seen only by you. Learn more ›
×
You can save this tab as Personal to edit and correct it or add notes. All changes will be seen only by you. Learn more »
launch autoscroll
font size
0
reset
guitar tuner
edit
Autoscroll
slow
fast
+/-
esc
set tempo
stop
Bueno este es un tema bastante facil hay q fijarse solamente
el cambio de ritmo del bajo


Intro:

El bajo entra con después del una vuelta del solo
   D
G-----------------------------------
D-----------------------------------
A--5--5-5---5--5-5---5--5-5---5--5-5
E-----------------------------------  X2

 Versos

    D      G           D    Em    (arreglo )
G----------------------------------------
D----------------------------------------
A---5-------------2-3--5-----7----7-9-7--
E----------3----3------------------------

 El arreglo engancha con el otro ritma del bajo ojo al piojo..

    G          A                   B
G--------------------------------------------
D---------------------------------------------
A----------------------------------2--2-2?X2-
E---3--3-3-X2--5--5-5---5--5-5-7-5------------


   A        B
G-----------------------------------
D-----------------------------------
A--0--0-0---2--2-2---2--2-2---------
E-----------------------------------


Y engancha de nuevo con el re y con el solo del intro


(..Y cure mis heridas)

Fijate bien cuantas son y cuando cambia lo hace en corchea y rapido


   A       G
G-------------------
D-------------------
A--12-X8---10-X8---
E-----------------

( y queme las cortinas..)

   A       G      A       D
G----------------------------
D----------------------------
A--12-X8---10-X8----------5--
E------------------5-5-5-----


Bueno Gente no dejen de escuchar a charly nunca cualquier
duda Roke_snm@ SAY NO MORE

            
            
Suggest correction
Creating personal tab
Creating personal tab
You can edit any tab online and save it as your Personal.

You can edit, replace or remove any tab part or add personal notes – all changes will be seen only by you.

Personal tabs can be accessed anytime from any device, even offline.
Learn more »
Give kudos to tab author, rate the tab!
1 2 3 4 5
comments
print report bad tab
guest
Wanna post a correction for this tab? Suggest correction