Oops, an error
Loading. Please wait.

Tu Vicio tab

117 views 1 this week
no commentswrite comment
1 2 3 4 5
3 more votes to show rating
add to favorites
×
Save as Personal and add changes to this tab that will be seen only by you. Learn more ›
×
You can save this tab as Personal to edit and correct it or add notes. All changes will be seen only by you. Learn more »
launch autoscroll
font size
0
reset
how to read this tab
guitar tuner
edit
Autoscroll
slow
fast
+/-
esc
set tempo
stop
He notado que a las versiones de este tema que hay aquí les
fallan detalles, así que decidí mandar la mía que, si bien
no es perfecta, se acerca mucho a la original.

El intro es la, re y mi arpegeados 2 veces...

Debo anotar, antes de comenzar, un riff que va con los tonos
MI, LA y SI y que entra en cuanto entra el tono, solo en los
versos:

Tono de MI (E)          tono de la (A)
E|-0-4------0-0-4------|-----------------------|
A|-----2-4-2------2-4-2|-0-0-4------0-0-4------|
D|---------------------|-------2-4-2------2-4-2|

Tono de si (B)
E|--------------------------|
A|-2-2-6--------2-2-4-------|
D|--------4-6-4--------4-6-4|

          E
Yo soy un vicio mas
                  A
en tu vida soy un vicio más
          B
porque no me dejás
                          C#m       D
si es que soy tan solo un vicio, tu vicio...

          E
yo soy un vicio mas
                   A
en tu mente soy un vicio más
         B
no me podés dejar
                      C#m       D
porque soy tan sólo un vicio, tu vicio...


            B
Y cuando estés masturbando a la nena
   G#7              C#m
en una playa en Pinamar
F#7sus4               F#7
no te hagas problema, no vale la pena,
F#m7                       B
alguien en el mundo nunca te va a dejar.


yo soy un vicio mas
en la gente soy un vicio mas
contale a tu mamá
ella también tiene el vicio, tu vicio...


E|-5---------------------5----5----------------------------
A|---4-----------------4---2-2-----------------------------
D|----2-4-4-2--4-2-4-2-----------2--------------------2----
g|--------------------------------2-----------------2----2-
b|----------------------------------0-2-2-0--2-0-2-0----0--
e|---------------------------------------------------------

E|------5--------------------5----5--------------------------
A|--------4-----------------4--2-2---------------------------
D|----------2-4-4-2--4-2-4-2--------2-------------------2----
g|-----2-----------------------------2-----------------2---2-
b|-2-0---------------------------------0-2-2-0--2-0-2-0---0--
e|-----------------------------------------------------------

E|-------------
A|-------------
D|-------------
g|-----2-------
b|-2-0---------
e--------------


y cuando estés masturbando a la nena
en una playa en Pinamar
quien te hará el aguante, quien te dará antes
todas esas cosas que no puedes comprar

yo soy un vicio mas,
todo el tiempo soy un vicio mas
en esta sociedad
todo el mundo tiene un vicio, tu vicio

yo soy un vicio mas
en tu vida soy un vicio mas
porque no me dejas
si es que solo soy un vicio, tu vicio

tu vicio, tu vicio...

Sobra decir que todos los versos van igual y que los dos cambios
también son los mismos tonos... ahí está, bastante fácil...

si tienen dudas, comentarios, quejas, etc. a mi mail
sodamaniac@

ando buscando baijsta, guitarrista y baterista con influencias
de sui generis, seru girán, charly, spinetta y todo eso para tocar
en un grupo en Tijuana B.C., México, interesados a mi mail.

AGUANTE LA INFLUENCIA!!!

            
            
Suggest correction
Creating personal tab
Creating personal tab
You can edit any tab online and save it as your Personal.

You can edit, replace or remove any tab part or add personal notes – all changes will be seen only by you.

Personal tabs can be accessed anytime from any device, even offline.
Learn more »
Give kudos to tab author, rate the tab!
1 2 3 4 5
comments
print report bad tab
guest
Wanna post a correction for this tab? Suggest correction