Oops, an error
Loading. Please wait.

Flor Sin Retoño tab

155 views 1 this week
no commentswrite comment
1 2 3 4 5
3 more votes to show rating
add to favorites
×
Save as Personal and add changes to this tab that will be seen only by you. Learn more ›
×
You can save this tab as Personal to edit and correct it or add notes. All changes will be seen only by you. Learn more »
launch autoscroll
font size
0
reset
how to read this tab
guitar tuner
edit
Autoscroll
slow
fast
+/-
esc
set tempo
stop
A PETICION DE UN AMIGO A QUI LA TIENEN...


1.|-1-3-4-4-6-6-8-8-7-8--------------|
2.|-3-4-6-6-8-8-9-9-8-9--------------|
3.|----------------------------------|
4.|----------------------------------|
5.|----------------------------------|
6.|----------------------------------|


1.|--8--10--13--11--10--8-6-6-5-6----|
2.|--9--11--15--13--11--9-8-8-7-8----|
3.|----------------------------------|
4.|----------------------------------|
5.|----------------------------------|
6.|----------------------------------|


1.|-----8-10-10-8--------------------|
2.|--11-----------11-10-10-10-8-10---|
3.|----------------------------------|
4.|----------------------------------|
5.|----------------------------------|
6.|----------------------------------|


1.|-------8--------------------------|
2.|-10-11---11--10--8----------------|
3.|----------------------------------|
4.|----------------------------------|
5.|----------------------------------|
6.|----------------------------------|


1.|-10-11-10-8-10-8-6-8-6-5-6-5---3---|
2.|-------------------------------3---|
3.|-------------------------------3---|
4.|-------------------------------5---|
5.|-------------------------------5---|
6.|-------------------------------3---|


PRACTICAMENTE SE REPITE LO MISMO DOS VECES..
PERO COMO LA SAQUE SE ESCUCHA UN POCO BRUSCO 
EL CAMBIO..
POR ESO NADA MAS AGANLO UN POCO MAS....
DE HECHO LA TUBE QUE SACAR RAPIDO... YA QUE ME
 PIDIO UN AMIGO LOS ACORDES PERO APROVECHE Y SAQUE TODO...

SOLm          RE7
SEMBRE UNA FLOR
         SOLm
SIN INTERES
          RE7
YO LA SEMBRE
                  SOLm
PARA VER SI ERA FORMAL
            SOL7
A LOS TRES DIAS
                 DOm
QUE LA DEJE DE REGAR
                     SOLm
AL VOLVER YA ESTABA SECA 
        RE7       SOLm  DOm
YA NO QUISO RETOÑAR
                      SOLm
AL VOLVER YA ESTABA SECA
         RE7      SOLm
YA NO QUISO RETOÑAR...
           RE7
YO LA REGABA
                       SOLm
CON AGUA QUE CAE DEL CIELO
          RE7
Y LA REGABA
                      SOLm
CON LAGRIMAS DE MIS OJOS
                 SOL7
MIS AMIGOS ME DIJERON
                  DOm
YA NO RIEGUES ESA FLOR
                  SOLm
ESA FLOR YA NO RETOÑA
         RE7         SOLm DOm
TIENE MUERTO EL CORAZON
                  SOLm
ESA FLOR YA NO RETOÑA
         RE7         SOLm
TIENE MUERTO EL CORAZON

DUDAS COMENTARIOS AHI ME ESCRIBEN...
Suggest correction
Creating personal tab
Creating personal tab
You can edit any tab online and save it as your Personal.

You can edit, replace or remove any tab part or add personal notes – all changes will be seen only by you.

Personal tabs can be accessed anytime from any device, even offline.
Learn more »
Give kudos to tab author, rate the tab!
1 2 3 4 5
comments
print report bad tab
guest
Wanna post a correction for this tab? Suggest correction