Oops, an error
Loading. Please wait.

Simpática Y Muy Bonita tab

version 2
version 2

Whole song

43 views 1 this week
no commentswrite comment
1 2 3 4 5
3 more votes to show rating
add to favorites
×
Save as Personal and add changes to this tab that will be seen only by you. Learn more ›
×
You can save this tab as Personal to edit and correct it or add notes. All changes will be seen only by you. Learn more »
launch autoscroll
font size
0
reset
how to read this tab
guitar tuner
edit
Autoscroll
slow
fast
+/-
esc
set tempo
stop
                         Los Charros de Lumaco
                         Simpatica y muy Bonita
                                  by
                        

e-3-2-0---------2-2-5-5-5-8-8-8-7---3-2-0---------2-2-5-5-5-
b-------3-3-3-3---------------------------3-3-3-3-----------
g-----------------------------------------------------------
d-----------------------------------------------------------
a-----------------------------------------------------------
e-----------------------------------------------------------

e--7-7-5-3--
b-----------
g-----------           x2 y al final de la segunda
d-----------
a-----------
e-----------

e--7--------
b----3------
g-----------
d-----------
a-----------
e-----------

e-----13-----12----10-----10----10------
b--15-----14----12-----12----12-----12--
g---------------------------------------
d---------------------------------------    x3
a---------------------------------------
e---------------------------------------

e----5---3---2---2----
b--7---5---3---3---3--
g---------------------
d---------------------          x4 y en la ultima
a---------------------
e---------------------

e-------------
b--0-0-0------
g--------2-0--
d-------------
a-------------
e-------------

(Solo de Acordeon)

Y AHORA LA LETRA
-----------------------------------------------

por ahí viene, por ahí viene

caminando, por ahí viene coquetiando

RE 
por ahí

RE 
Los muchacho, los muchachos

siempre sueñan algun día

               SOL 
salir con ella, por ahí

DO                       SOL 
ella no, ella no se fija en nadie

                           RE       SOL 
cuando va  crusando la calleeee por ahí

CORO:

                   RE 
Simpatica y muy bonita

es lo que tiene esa chica

                   SOL 
tiene personalidad(x2)

(Los charros de Lumaco)

Ella se, ella se viste a  la moda
como siempre muy elegante por ahí
los muchachos
le tiran muchos piropos
pero ella los vuelve locos por ahí

ella no, ella no se fija en nadie
pero crusando la calleeeepor ahí

CORO:
Simpatica y muy bonita
es lo que tiene esa chica
tiene personalidad(x2)

----------------------------------------------

By Bambuxah
Del
Team
   Maldado0so0o0S

            
            
Suggest correction
Creating personal tab
Creating personal tab
You can edit any tab online and save it as your Personal.

You can edit, replace or remove any tab part or add personal notes – all changes will be seen only by you.

Personal tabs can be accessed anytime from any device, even offline.
Learn more »
Give kudos to tab author, rate the tab!
1 2 3 4 5
comments
print report bad tab
guest
Wanna post a correction for this tab? Suggest correction